Oops, an error
Loading. Please wait.

Entre Las Piedras tab

version 1
version 1

Whole song

15 views 1 this week
no commentswrite comment
1 2 3 4 5
3 more votes to show rating
add to favorites
×
Save as Personal and add changes to this tab that will be seen only by you. Learn more ›
×
You can save this tab as Personal to edit and correct it or add notes. All changes will be seen only by you. Learn more »
launch autoscroll
font size
0
reset
how to read this tab
guitar tuner
edit
Autoscroll
slow
fast
+/-
esc
set tempo
stop
Este es mi primer arreglo
que realizo de una de mis bandas
que me mas me gusta, espero les
guste y les sirva;
Escuchen bien la canción para
 llevar los tiempos.
Saludos desde Villacorzo, Chiapas, México.

Comienza con la batería
 y luego entra el bajo (min 00:05)

Al min 00:12 entra la guitarra.
Intro
e|-------------------------------|
B|-------------------------------|
G|----------9-------------7------|
D|--7-------9-----4-------7------|
A|--7?-----7------4------5-------|
E|-5-------------2---------------|

Verso: (x2) min 00:20
e|-------------------------------------------
B|-------------------------------------------
G|-----------------------9-9-9-9-9-9-9-9-9-9-
D|--7-7-7-7-7-7-7-7-7-7--9-9-9-9-9-9-9-9-9-9-
A|--7-7-7-7-7-7-7-7-7-7--7-7-7-7-7-7-7-7-7-7-
E|--5-5-5-5-5-5-5-5-5-5----------------------

-----------------------------------------------|
-----------------------------------------------|
----------------------7-7-7-7-7-7-7-7-7-7-7-7--|
-4-4-4-4-4-4-4-4-4-4--7-7-7-7-7-7-7-7-7-7-7-7--|
-4-4-4-4-4-4-4-4?4-4?-5-5-5-5-5-5-5-5-5-5?5-5--|
-2-2-2-2-2-2-2-2-2-2---------------------------|

Coro: min 00:37           (x3)
|-----------------------||---------------------------------------|
|-----------------------||---------------------------------------|
|--9-9-9-9-9-9-9-9-9-9--||-----------7-7-7-7------------9-9-9-9--|
|--9-9-9-9-9-9-9-9-9-9--||--4-4-4-4--7-7-7-7--7-7-7-7---9-9-9-9--|
|--7-7-7-7-7-7-7-7-7-7--||--4-4-4-4--5-5-5-5--7-7-7-7---7-7-7-7--|
|-----------------------||--2-2-2-2-----------5-5-5-5------------|

|---------------------------------------------------------------|
|---------------------7-7-7-7-7-7-7-7-7-7--9-9-9-9-9-9-9-9-9-9--|
|---------------------7-7-7-7-7-7-7-7-7-7--9-9-9-9-9-9-9-9-9-9--|
|--4-4-4-4-4-4-4-4-4--5-5-5-5-5-5-5-5-5-5--7-7-7-7-7-7-7-7-7-7--|
|--4-4-4-4-4-4-4-4-4--------------------------------------------|
|--2-2-2-2-2-2-2-2-2--------------------------------------------|

Puente: (x2) 00:57
|------------------------|
|------------------------|
|-------------------7-6--|
|--7-7-7-7-7-7-7-7--7-6--|
|--7-7-7-7-7-7-7-7--5-4--|
|--5-5-5-5-5-5-5-5-------|

|-----------------------------------------|
|-----------------------------------------|
|-------------------7-6--9-9-9-9-9-9-9-9--|
|--7-7-7-7-7-7-7-7--7-6--9-9-9-9-9-9-9-9--|
|--7-7-7-7-7-7-7-7--5-4--7-7-7-7-7-7-7-7--|
|--5-5-5-5-5-5-5-5------------------------|

(Durante el solo la  repite el verso 2 veces)
Solo min 1:05
|------------------------------------------------------------------|
|------------------------------------------------------------------|
|---------------------------------------------9-11-9--11-14-15-14--|
|--5--5-7-7--12-12-12-11-9----12-11-9---------9-11-9--11-14-15-14--|
|--------------------------12---------12-12------------------------|
|------------------------------------------------------------------|

Queda la batería y el bajo.

La guitarra entra en el coro min 1:46
Coro:                     (x3)
|-----------------------||---------------------------------------|
|-----------------------||---------------------------------------|
|--9-9-9-9-9-9-9-9-9-9--||-----------7-7-7-7------------9-9-9-9--|
|--9-9-9-9-9-9-9-9-9-9--||--4-4-4-4--7-7-7-7--7-7-7-7---9-9-9-9--|
|--7-7-7-7-7-7-7-7-7-7--||--4-4-4-4--5-5-5-5--7-7-7-7---7-7-7-7--|
|-----------------------||--2-2-2-2-----------5-5-5-5------------|

|---------------------------------------------------------------|
|---------------------7-7-7-7-7-7-7-7-7-7--9-9-9-9-9-9-9-9-9-9--|
|---------------------7-7-7-7-7-7-7-7-7-7--9-9-9-9-9-9-9-9-9-9--|
|--4-4-4-4-4-4-4-4-4--5-5-5-5-5-5-5-5-5-5--7-7-7-7-7-7-7-7-7-7--|
|--4-4-4-4-4-4-4-4-4--------------------------------------------|
|--2-2-2-2-2-2-2-2-2--------------------------------------------|

Final: (x3) min: 2:08
|------------------------|
|------------------------|
|-------------------7-6--|
|--7-7-7-7-7-7-7-7--7-6--|
|--7-7-7-7-7-7-7-7--5-4--|
|--5-5-5-5-5-5-5-5-------|

|--------------------------|
|--------------------------|
|-------------------7-6----|
|--7-7-7-7-7-7-7-7--7-6--7-|
|--7-7-7-7-7-7-7-7--5-4--7-|
|--5-5-5-5-5-5-5-5-------5-|

Y ZOPAS?!!

            
            
Suggest correction
Creating personal tab
Creating personal tab
You can edit any tab online and save it as your Personal.

You can edit, replace or remove any tab part or add personal notes – all changes will be seen only by you.

Personal tabs can be accessed anytime from any device, even offline.
Learn more »
Give kudos to tab author, rate the tab!
1 2 3 4 5
comments
print report bad tab
guest
Wanna post a correction for this tab? Suggest correction