Oops, an error
Loading. Please wait.

Ilusiones tab

version 1
version 1

Whole song

23 views 1 this week
no commentswrite comment
1 2 3 4 5
3 more votes to show rating
add to favorites
×
Save as Personal and add changes to this tab that will be seen only by you. Learn more ›
×
You can save this tab as Personal to edit and correct it or add notes. All changes will be seen only by you. Learn more »
launch autoscroll
font size
0
reset
how to read this tab
guitar tuner
edit
Autoscroll
slow
fast
+/-
esc
set tempo
stop
EMPIEZA ASI:

ESTO SERÁ (0)
-------------------------------------3--2---------
-------3---------3----------3-------3-------------
----0---0-----0---0------0---0-----2--------------
---2---------2----------2---------0---------------
--2---------2----------2--------------------------
-0---------0----------0--------------------------- X2

ESTO SERÁ (1)

--------------------------------------------------
--------------------------------------------------
--------------------------------------------------
-----------5-5-5-5-5-----------7-7-7-7-7----------
-2-2-2-2-2-3-3-3-3-3-5-5-5-5-5-5-5-5-5-5----------
-0-0-0-0-0-----------3-3-3-3-3--------------------

(1)
debo encontrar un equilibrio
en esta situacion
al que no implique
lo que no puede ser
cada dia sigues
en la misma dimension
en la misma dimension!!!

ESTO SERA (2)

----------------------------------------------
----------------------------------------------
----------------------------------------------
-5-5-5-5-5-5--5-5-5-5-5-5--5-5-5-5-5-7-7-7-7--
-3-3-3-2-2-2--3-3-3-2-2-2--3-3-3-2-3-5-5-5-5--
----------------------------------------------

(1)
solo sientes ilusiones
con falsos sentimientos
a todo esto no es así!!
preguntate...

SE REPITE (0) SOLO UNA VEZ ( X1 )

(1)
demostrar la existencia
buscando compación
entregandolo todo
por un simple juego
al final se pierde
la verdadera relación
la verdadera relación!!!

SE REPITE (2)

solo sientes ilusiones
con falsos sentimientos
a todo esto no es asi!!!
preguntate...

            
            
Suggest correction
Creating personal tab
Creating personal tab
You can edit any tab online and save it as your Personal.

You can edit, replace or remove any tab part or add personal notes – all changes will be seen only by you.

Personal tabs can be accessed anytime from any device, even offline.
Learn more »
Give kudos to tab author, rate the tab!
1 2 3 4 5
comments
print report bad tab
guest
Wanna post a correction for this tab? Suggest correction