Oops, an error
Loading. Please wait.

Perdido En El Fondo tab

version 1
version 1

Whole song

12 views 1 this week
no commentswrite comment
1 2 3 4 5
3 more votes to show rating
add to favorites
×
Save as Personal and add changes to this tab that will be seen only by you. Learn more ›
×
You can save this tab as Personal to edit and correct it or add notes. All changes will be seen only by you. Learn more »
launch autoscroll
font size
0
reset
how to read this tab
guitar tuner
edit
Autoscroll
slow
fast
+/-
esc
set tempo
stop
Intro:
|-----------------------------------|
|-0-0-7-7-7-------------------------|
|-----------7-7-7-9-9-9-4-4-4-7-7-7-|
|-----------------------------------|x4
|-----------------------------------|
|-----------------------------------|


   B5 G5 D5 A5


RIFF1- B5 G5 D5 a5
Siempre hay que demostrar
La razon de ser asi
Expresa lo que sientas
acaso hay algo malo
NO seas pendejo

RIFF2- G5 A5/B5
Si la cosa esta dentro de ti
no puede ser
En tu camino
xq estas perdido en el fondo


   B5 G5 D5 A5


RIFF1- B5 G5 D5 a5
MIro al cielo para alla
no aparece esa señal
Un reto a la distancia
Un desafio intenso
Robara mas q nunka

RIFF2- G5 A5/B5
La fuerza esta dentro de ti
no puede ser
Entu camino
xq estas perdido en el fondo


Solo:
|---------------------------------------------------
|---------------------------------------------------
|---------------------------------------------------
|-7-9-7-9-9--7---7p9h7-9-7--7-9-7-9p7h9p7-7---7-----
|--------------9----------------------------9-------
|---------------------------------------------------

 ---------------------------------------------------
 ---------------------------------------------------
 ----9-9-9-7-6-7p6-----------9-7-7-6----------------
 --9---------------9-7-9-9-9---------9-7-9----------
 ---------------------------------------------------
 ---------------------------------------------------

 ---------------------------------------------------|
 --7-7-7-7-7-7-7-7-7-11-9-7-9-7---------------------|
 -------------------------------9-7-9----7-6-6------|
 ---------------------------------------------9-7-9-|
 ---------------------------------------------------|
 ---------------------------------------------------|


se repite el Riff1 con el A5 muteado- 4veces y termina


yo se q la letra esta mas mal...pero los acordes y
punteos estan 100% correcto...

            
            
Suggest correction
Creating personal tab
Creating personal tab
You can edit any tab online and save it as your Personal.

You can edit, replace or remove any tab part or add personal notes – all changes will be seen only by you.

Personal tabs can be accessed anytime from any device, even offline.
Learn more »
Give kudos to tab author, rate the tab!
1 2 3 4 5
comments
print report bad tab
guest
Wanna post a correction for this tab? Suggest correction