Oops, an error
Loading. Please wait.

Sabor Amargo bass

version 2
version 2

Whole song

19 views 1 this week
no commentswrite comment
1 2 3 4 5
3 more votes to show rating
add to favorites
×
Save as Personal and add changes to this tab that will be seen only by you. Learn more ›
×
You can save this tab as Personal to edit and correct it or add notes. All changes will be seen only by you. Learn more »
launch autoscroll
font size
0
reset
guitar tuner
edit
Autoscroll
slow
fast
+/-
esc
set tempo
stop
Ya, Ahora si la van a poder tocar completa Sí ó Sí
asi ke aki les va: espero les guste!!


INTRo_:

G|-------------------------------|
D|-------------------------------|
A|-7-7-7-7-7-7-7-7-7-7-7-7-7-7-7-|
E|-------------------------------|

VERso_:
  Sentir algo extraño, sentir un sabor amargo, sembrado en el olvido
G|---------------------------------------------------------------------------------------|
D|---------------------------------------------------------------------------------------|
A|---7-7-7-7-7-7-7-7-------------------------------------------------------------------7-|
E|----------------------7-7-7-7-7-7-7-7-7-7------9-9-9-9-9-9-9-9--------5-5-5---7-7-7/9--|


COro_:
  En   el  fondo de mi puerta!              esa molestia ya no esta,tu corazon en mis manos
G|-----------------------------------------|CReo ke es !!
D|-----------------------------------------|
A|-----------------------------------------|
E|5-5-5-5--7-7-7-7---9-9-9-9--4-4-4/5/4----|

  MUCHO MEJOR,   MUCHO MEJOR!!!
G|-----------------------------------------|
D|-----------------------------------------|
A|-7-7-7----------7-7-7--------------------|
E|-------7/5--7---------7/5-7--------------|


OUTro_:
               MUCHO MEJOR!!!!1
G|----------------------------|
D|----------------------------|
A|-7-7-----7-7-----12-11-12-7-|
E|-----7/5-----7/5----------0-|

Ya eso es todo ahi ta ustedes ya lo sacan ps los tiempos
saludos a mi amigo Otto 'HARDCORE' y a toda la gente ke mayo!
AHi Faltan arreglos komo estos pero ustedes le ponen:
EJEMPLO:

G|-------------|
D|-------------|
A|-------------|
E|-7/9--9-9-9/5|

webadas asi ke son faciles de pulir con la practica.

            
            
Suggest correction
Creating personal tab
Creating personal tab
You can edit any tab online and save it as your Personal.

You can edit, replace or remove any tab part or add personal notes – all changes will be seen only by you.

Personal tabs can be accessed anytime from any device, even offline.
Learn more »
Give kudos to tab author, rate the tab!
1 2 3 4 5
comments
print report bad tab
guest
Wanna post a correction for this tab? Suggest correction