Oops, an error
Loading. Please wait.

Planeta Amor tab

version 1
version 1

Whole song

41 views 1 this week
no commentswrite comment
1 2 3 4 5
3 more votes to show rating
add to favorites
×
Save as Personal and add changes to this tab that will be seen only by you. Learn more ›
×
You can save this tab as Personal to edit and correct it or add notes. All changes will be seen only by you. Learn more »
launch autoscroll
font size
0
reset
how to read this tab
guitar tuner
edit
Autoscroll
slow
fast
+/-
esc
set tempo
stop
UHH AHHH UHHH AHHHH
PIO PIO PIO

Verso 1:

  SI5  RE5  SOL5  RE5
E|-------------------|
B|-------------------|
G|-------7---------7-|
D|--9----7----5----7-|
A|--9----5----5----5-|
E|--7---------3------|

SI   RE    SOL    RE                |
Amanecen, los corazones             |esta parte se hace en acustico
SI     RE      SOL        RE        |pero normal pueden distorcionarla
es el viento q siembra en girasoles |desde el comienzo ->suena mejor
------------------------------------|
SI5   RE5   SOL5   RE5
Un eterno florecimiento
SI5    RE5   SOL5    RE5
que en la distancia vivire!

Coro:
     MI5      RE5      MI5      RE5      MI5      RE5    DO5
E|----------------------------------------------------------|
B|----------------------------------------------------------|
G|--9-9-9----7-7-7----9-9-9----7-7-7----9-9-9----9-9-9----5-|
D|--9-9-9----7-7-7----9-9-9----7-7-7----9-9-9----9-9-9----5-|
A|--7-7-7----5-5-5----7-7-7----5-5-5----7-7-7----5-5-5----3-|
E|----------------------------------------------------------|

MI5              RE5
              ohhh, mas q el dolor
MI5              RE5
no hay tormenta y la inconciencia
MI5           RE5
pueda disolver en mi
DO5
los sueños.

Pos Coro:
SI5  RE5   SOL5   RE5
Al imaginar  [imaginarr]
SI5  RE5   SOL5   RE5
imaginar un mundo, tan distinto
SI5  RE5   SOL5   RE5
seguir (sintiendooo)
SI5  RE5   SOL5   RE5
sintiendo amoor.

Verso 2:
SI5  RE5   SOL5   RE5
en tus ojos, yo puedo ver
SI5  RE5   SOL5   RE5
la ternura, de tu existencia
SI5  RE5   SOL5   RE5
quiero hablarte
SI5  RE5   SOL5   RE5
de la esperanzaaa

Coro:
     MI5      RE5      MI5      RE5      MI5      RE5    DO5
E|----------------------------------------------------------|
B|----------------------------------------------------------|
G|--9-9-9----7-7-7----9-9-9----7-7-7----9-9-9----9-9-9----5-|
D|--9-9-9----7-7-7----9-9-9----7-7-7----9-9-9----9-9-9----5-|
A|--7-7-7----5-5-5----7-7-7----5-5-5----7-7-7----5-5-5----3-|
E|----------------------------------------------------------|

MI5              RE5
              ohhh, mas q el dolor
MI5              RE5
no hay tormenta y la inconciencia
MI5           RE5
pueda disolver en mi
DO5
los sueños.

Pos Coro:
     SI5        RE5           SOL5         RE5
E|7-7-7-7-7-10-10-10-10-10-----------10-10-10-10-10-|   |
B|-------------------------8-8-8-8-8----------------|   |
G|--------------------------------------------------| x4|
D|--------------------------------------------------|   |
A|--------------------------------------------------|   |
E|--------------------------------------------------|   |
en esta ultima parte se acompaña con este pequeño punteo
darle de acuerdo a los acordes de la canion

SI5  RE5   SOL5   RE5             |
Al imaginar  [imaginarr]          |
SI5  RE5   SOL5   RE5             |en esta parte marcada
imaginar un mundo, tan distinto   |es donde se acompaña con
SI5  RE5   SOL5   RE5             |el punteo
seguir [sintiendooo]              |
SI5  RE5   SOL5   RE5             |
sintiendo amoor.
----------------------------------
SI5  RE5   SOL5   RE5
sintiendo amor(amorrrrr)
SI5  RE5   SOL5   RE5
sintiendo amor(amorrrrr)
SI5  RE5   SOL5   RE5
sintiendo amor(amorrrrr)
    SI5
sintiendo amor.

FIN

aqui esta el tab de "planeta amor",esta bien hecho
cualquier pregunta a: cesar_anth@

            
            
Suggest correction
Creating personal tab
Creating personal tab
You can edit any tab online and save it as your Personal.

You can edit, replace or remove any tab part or add personal notes – all changes will be seen only by you.

Personal tabs can be accessed anytime from any device, even offline.
Learn more »
Give kudos to tab author, rate the tab!
1 2 3 4 5
comments
print report bad tab
guest
Wanna post a correction for this tab? Suggest correction