Oops, an error
Loading. Please wait.

A Carolina tab

version 1
version 1

Whole song

59 views 3 this week
no commentswrite comment
1 2 3 4 5
3 more votes to show rating
add to favorites
×
Save as Personal and add changes to this tab that will be seen only by you. Learn more ›
×
You can save this tab as Personal to edit and correct it or add notes. All changes will be seen only by you. Learn more »
launch autoscroll
font size
0
reset
how to read this tab
guitar tuner
edit
Autoscroll
slow
fast
+/-
esc
set tempo
stop
Fuxan os ventos: A Carolina
---------------------------

    G           C  x3  G          C   G           C  x2  G           C
e||-3-3-3--1-1--0----|-0-0-0--------|-7-7-7--5-5--3----|-7-7-7--5-5--0--|
B||------------------|--------3-3-1-|------------------|----------------|
G||------------------|--------------|------------------|----------------|
D||------------------|--------------|------------------|----------------|
A||------------------|--------------|------------------|----------------|
E||------------------|--------------|------------------|----------------|

    G           C   G           C  x3  G           C
e||-3-3-3--1-1--0-|-0-0-0------------|---------------|
B||---------------|--------3-3--1----|-1-1-1--0-0--1-|
G||---------------|------------------|---------------|
D||---------------|------------------|---------------|
A||---------------|------------------|---------------|
E||---------------|------------------|---------------|

C                   G               C 
A saia da Carolina ten un lagarto pintado
                         G                  C
cando a Carolina baila, o lagarto dalle o rabo
G                C    G            C
¿bailaches Carolina? Bailei si señor
G                C       G              C
dime con quen bailaches, bailei co meu amor
G              C      G            C
bailei co meu amor, bailei co meu amor
G              C      G            C
¿bailaches Carolina? bailei si señor.


A carolina é unha tola que todo o fai ó reves
vistese pola cabeza e íspese polos pés
¿bailaches carolina? Bailei no cuartel
dime con quen bailaches, bailei co coronel
bailei co cornel, bailei co coronel
¿bailaches carolina? bailei no cuartel.

O señor cura noon baila porque ten unha coroa
baile señor cura baile que deus todo llo perdoa
¿bailaches carolina? bailei abofe
dime con quen bailaches, bailei co meu xosé
bailei co meu xose, bailei co meu xose
¿bailaches carolina? bailei abofé.

Louro´04

Calquera cousa a maremoto007@

            
            
Suggest correction
Creating personal tab
Creating personal tab
You can edit any tab online and save it as your Personal.

You can edit, replace or remove any tab part or add personal notes – all changes will be seen only by you.

Personal tabs can be accessed anytime from any device, even offline.
Learn more »
Give kudos to tab author, rate the tab!
1 2 3 4 5
comments
print report bad tab
guest
Wanna post a correction for this tab? Suggest correction