Oops, an error
Loading. Please wait.

Trouble tab

162 views 1 this week
no commentswrite comment
1 2 3 4 5
3 more votes to show rating
add to favorites
×
Save as Personal and add changes to this tab that will be seen only by you. Learn more ›
×
You can save this tab as Personal to edit and correct it or add notes. All changes will be seen only by you. Learn more »
launch autoscroll
font size
0
reset
how to read this tab
guitar tuner
edit
Autoscroll
slow
fast
+/-
esc
set tempo
stop
Author
Difficulty
VERSE and INTRO........Check out my other fuzzy tabs!!!!! marcellness@gmail.com
|----------------------------------------------------------------------|
|----------------------------------------------------------------------|
|--------4----------4(Let ring)----------4------------4(Let ring)------|
|--------4----------4--------------------4------------4----------------|
|--2------------2-------------------0-------------0--------------------|
|----------------------------------------------------------------------|

|----------------------------------------------------------------------|
|----------------------------------------------------------------------|
|--------4----------4(Let ring)----------4------3/4--------------------|
|--------4----------4--------------------4------4----------------------|
|----------------------------------------------------------------------|
|--3------------3-------------------2----------------------------------|

Chorus
|---2---2---3---3------------------|   |---2---2---0---0---------------|
|---3---3---3---3------------------|   |---3---3---3---3---------------|
|---2---2---2---2------------------|   |---2---2---2---2---------------|
|---0---0---0---0------------------|X3 |---0---0---0---0---------------|
|----------------------------------|   |-------------------------------|
|----------------------------------|   |-------------------------------|
look away, don't look away              All you must do is believe

That's pretty much the whole song if you play with it so rock on and let me know if any 
on top)
Long live fuzigish!!!!!!

            
            
Suggest correction
Creating personal tab
Creating personal tab
You can edit any tab online and save it as your Personal.

You can edit, replace or remove any tab part or add personal notes – all changes will be seen only by you.

Personal tabs can be accessed anytime from any device, even offline.
Learn more »
Give kudos to tab author, rate the tab!
1 2 3 4 5
comments
print report bad tab
guest
You may want to rate the tab now too:
select rating
Wanna post a correction for this tab? Suggest correction