Oops, an error
Loading. Please wait.

Let It Live Tab

version 1
version 1

Solo

Interactive

by Fuzz
358 views 12 this week
1 commentread comment
1 2 3 4 5
1 last vote to show rating
add to favorites
launch autoscroll
font size
0
reset
how to read this tab
guitar tuner
Autoscroll
slow
fast
+/-
esc
set tempo
stop
Help us to improve Ultimate-Guitar.com Take our survey!
×
Author
FUZZ - LET IT LIVE (SOLO)

album version - II
___________________________________________
___________________________________________

[Pre-Verse]

(0:34)      
e|--------------------------------------------------------------------------------|
b|---------------------5----------------------------------------------------------|
g|-----5-----------7-7---7-5---5----------5-5/7-5---------------------------------| 
d|-5h7----7p5h7--------------5---5-7-7--7---------5-5--5-5p3---3-3h5--------------| 
a|--------------5--------------------------------------------3-------5--5---5-----|
e|--------------------------------------------------------------------------------|

(0:45)
e|---------------------------------------------------------------------------------------------|
b|---------------------5------------------------------------------------------------------7----|
g|-----5-----------7-7---7-5---5----------5-5/7-5---------------------------------5-------7----| 
d|-5h7----7p5h7--------------5---5-7-7--7---------5-5--5-5p3---3-3h5----------5h7---7p5h7-7----| 
a|--------------5--------------------------------------------3-------5--5---5-------------5----|
e|---------------------------------------------------------------------------------------------|


[Verse Fill]

(2:29)
e|-------------------------------------|
b|-------------------------------------|
g|-10b-7--5h7p5---5--------------------|
d|--------------7---7-5--3h5p3---------| 
a|-----------------------------5-3-----|
e|-------------------------------------|


[Solo]

(2:55)
e|----------------------------------------------------------------|
b|----------------------------------------------------------------|
g|----------------------------------------------------------------|
d|---------------------------------------10-12-12p10----10-12--12-|
a|-------------------------------8h10-12-------------12-----------|
e|-10-10--10-8h10-10-10--10-8h10----------------------------------|

(3:00)
e|---------------------------------------------------------------------------|
b|---------------------------------------------------------------------------|
g|---------------------------------------10-----10-12br-10----10-12br-10~10~-|
d|---------------------10h12-------10h12----12-------------12----0-----------|
a|-10h12-10h12---10h12-------10h12-------------------------------------------|
e|---------------------------------------------------------------------------|

(3:05)
e|--------------------------------------------------------------------------------------------------|
b|--------------------------------------------------------------------------------------------------|
g|-12p10----10----------10-12br-10--12p10----10----------12p10----10-----------12p10----10----------|
d|-------12----12-10-12-------------------12----12p10h12-------12----12p10h12--------12----12p10h12-|
a|--------------------------------------------------------------------------------------------------|
e|--------------------------------------------------------------------------------------------------|

(3:10)
e|-------------------------------------------10-------10-----10------------------------------------------|
b|----------------------------------------10-------13bb---13bb---13-10----10-----------------------------|
g|-------------------------10----10-12bbbbbbbbb------------------------12-----12-10-12b--10~~10~~10\\\\\-|
d|----------------10h11h12----12-------------------------------------------------------------------------|
a|-10h11h12p10h12----------------------------------------------------------------------------------------|
e|-------------------------------------------------------------------------------------------------------|
   
(3:17)
e|-------------------------------------------------------------------------------------------------------|
b|-------------------------------------------------------------------------------------------------------|
g|-------------------------------------------------------------------------------------------------------|
d|--------------------10-12----10-12-----------10-12----10-12--10h12p10h12p10-10h12-10h12p10h12p10h12----|
a|--------------10h12-------12-----------10h12-------12--------------------------------------------------|
e|-/10--10--/10----------------------/10-----------------------------------------------------------------|


(3:22)
e|--------------------------10---------------10-------------|
b|-----------------------10----10-13b-----10----13b-13b-13b-|
g|-10h12-12br--10--10h12----------0---12b-------------------|
d|----------------------------------------------------------|
a|----------------------------------------------------------|
e|----------------------------------------------------------|

(3:24)
e|--10-----10----10------10----10------10----10------10----10-----|
b|-----13bbbbb13bbb--13bbbbb13bbb--13bbbbb13bbb--13bbbbb13bbb-----|
g|-------------------------------------------------------------0--|
d|----------------------------------------------------------------| 
a|----------------------------------------------------------------|
e|----------------------------------------------------------------|


(3:28)
e|------------10--------10-----10------------------------------10-----10----10----10--------10--------------|
b|-----10--13----10--------13b-----------------13h15p13\10--------13b-13b~~-13b~~-13b~~--12----10-----------|
g|-12b--------------12b------------12-11-11/15-------------12b-------------------------------------pbr12-10-|
d|----------------------------------------------------------------------------------------------------------| 
a|----------------------------------------------------------------------------------------------------------|
e|----------------------------------------------------------------------------------------------------------|

(3:34)
e|-----------------------------------------------------------------------|
b|-----------------------------------------------------------------------|
g|-12p10----10------------10----10--12br-10------------------------------|
d|-------12----12-10-12------12-------------12-10h12-12~--12~--12~-------| 
a|-----------------------------------------------------------------------|
e|-----------------------------------------------------------------------|


[Outro Fill]

(3:48)
e|-------13b-----|
b|-13-10---------|
g|---------------|
d|---------------| 
a|---------------|
e|---------------|


************************************

| /    slide up
| \    slide down
| h    hammer-on
| p    pull-off
| ~    vibrato
| b    Bend
| bbb  Hold Bend
| pb  Pre-bend
| pbr Pre-bend Release
| br  Bend release

************************************
Suggest correction
Give kudos to tab author, rate the tab!
1 2 3 4 5
comments
print report bad tab
1 comment total.
0 reply
caasi-g 194 Sep 09, 2016 10:53 AM

omg i waited so long for this

guest
You may want to rate the tab now too:
select rating
Wanna post a correction for this tab? Suggest correction