Oops, an error
Loading. Please wait.

Preacher tab

by Fuzz
1,045 views 12 this week
2 commentsread comments
1 2 3 4 5
x 3
add to favorites
×
Save as Personal and add changes to this tab that will be seen only by you. Learn more ›
×
You can save this tab as Personal to edit and correct it or add notes. All changes will be seen only by you. Learn more »
launch autoscroll
font size
0
reset
how to read this tab
guitar tuner
edit
Autoscroll
slow
fast
+/-
esc
set tempo
stop
Author
Difficulty
It's hard to detect all of the quick little licks Charles Moothart plays so some of them
won't be in this tab.

Many thanks to lol96uaz for the corrections.

 Intro

e|------------------------------------------------------------------------------|
B|------------------------------------------------------------------------------|
G|------------------------------------------------------------------------------|
D|---7-----------------------7--------------------10----------------------------|
A|---5--7--7--5/7--8--7------5--7--7--5/7--8--7----8--10--10--8/10--11--10--8---|
E|------5--5--3/5--6--5---------5--5--3/5--6--5--------8---8--6/8---9---8---6---|

e|------------------------|
B|------------------------|
G|------------------------| Play this whole part x2
D|---7--------------------|  
A|---5--7--7--5/7--8--7---|
E|------5--5--3/5--6--5---| 
                                                                                
 Verse
 
 Lightly strum these.

e|-----------------------------|
B|-----------------5---7-------|
G|---5-----5-------5---7---5---| Play this x1
D|---7-----7-------5---7---7---|
A|---7-----7-------3---5---7---| If you have enough sustain, you can play the C and slide to
E|---5-----5---------------5---| the D without strumming it.

e|---------------------5-------|
B|-----------------5-----------|
G|---5-----5-------5-------5---| Play this x2
D|---7-----7-------5-------7---|  
A|---7-----7-------3-------7---| Instead of the A note on the high e string, you can play the
E|---5-----5---------------5---| harmonic on the 7th fret of the D string.

 Chorus
 
 Same as intro.

e|------------------------------------------------------------------------------|
B|------------------------------------------------------------------------------|
G|------------------------------------------------------------------------------|
D|---7-----------------------7--------------------10----------------------------|
A|---5--7--7--5/7--8--7------5--7--7--5/7--8--7----8--10--10--8/10--11--10--8---|
E|------5--5--3/5--6--5---------5--5--3/5--6--5--------8---8--6/8---9---8---6---|

e|------------------------|
B|------------------------|
G|------------------------| Play this whole part x2
D|---7--------------------|  
A|---5--7--7--5/7--8--7---|
E|------5--5--3/5--6--5---| 

Intro
Verse
Chorus
Verse
Chorus
Bridge
Solo
Outro

Please rate and comment any suggestions or corrections. I will try to figure out the rest of the
song if this tab is rated as correct.


************************************

| x   Dead note
| g   Grace note
| (n) Ghost note
| h   Hammer-on
| p   Pull-off
| r   Release
| >   Accented note
| t   Tapping
| b   Bend
| br  Bend release
| pb  Pre-bend
| pbr Pre-bend release
| /   Slide up
| \   Slide down
| ~   Vibrato
| s   Slap
| P   Pop
| PM  Palm mute
| TR  Trill
| N   Tremolo

************************************
Suggest correction
Creating personal tab
Creating personal tab
You can edit any tab online and save it as your Personal.

You can edit, replace or remove any tab part or add personal notes – all changes will be seen only by you.

Personal tabs can be accessed anytime from any device, even offline.
Learn more »
Give kudos to tab author, rate the tab!
1 2 3 4 5
comments
print report bad tab
2 comments total.
0 reply
lol96uaz 184 May 19, 2016 05:30 AM, edited at 09:31 am

I think the intro and verse is played more like this

D - A - G(slide)A# - A
F - C - A#(slide)C# - C

You have to change really quick though to make it sound the same

guest
You may want to rate the tab now too:
select rating
Wanna post a correction for this tab? Suggest correction