Oops, an error
Loading. Please wait.

Runaway Tab

840 views 3 this week
no commentswrite comment
1 2 3 4 5
please rate
add to favorites
launch autoscroll
font size
0
reset
how to read this tab
guitar tuner
Autoscroll
slow
fast
+/-
esc
set tempo
stop
Help us to improve Ultimate-Guitar.com Take our survey!
×
Author
Tuning
D A D G B E
Tabbed by: mickster1000

Runaway - G-Dragon

Tuning: Drop D
                                            ______________
Intro (0:00)                               |   optional   |
e---------------------------------------------------------|
B---------------------------------------------------------|
G--------------------------------------------7b8r7-5------|
D------5-3-------------------------5-3---------------(8\)-|
A----------5-66xx6-8-5-----------------5-6-6--------------|
D-5--5-----------------8-5----5--5------------------------|
                                           |______________|
e-----------------------------------------------------|
B-----------------------------------------------------|
G-----------------------------------------------------|
D------5-3------------------------5-3-----------------|
A----------5-66xx6-8-5----------------5-6-------------|
D-5--5-----------------8-5---5--5---------------------|


Verse (0:20)
e-----------------------------------------------------|
B-----------------------------------------------------|
G-----------------------------------------------------| x 2
D------5-3------------------------5-3-----------------|
A----------5-66xx6-8-5----------------5-6-------------|
D-5--5-----------------8-5---5--5---------------------|


Prechorus (0:36)
e-----------------------------------------------------|
B-----------------------------------------------------|
G-----------------------------------------------------| x 2
D------5-3------------------------5-3-----------------|
A----------5-66xx6-8-5----------------5-6-------------|
D-5--5-----------------8-5---5--5---------------------|


(0:51)
e--------------------------------------------------------------------------|
B--------------------------8-6------------------------------------8-6------|
G--8--8-7-5--------------------7-5-5-5--7-8--8-7-5--------------------7----|
D--8--8-----8-0-0-0--4-5-5-------5-5-5--7-8--8-----8-0-0-0--4-5-5-------5--|
A--6--6-------0-0-0--4-5---------3-3-3--5-6--6-------0-0-0--4-5------------|
D-------------0-0-0--4-5-----------------------------0-0-0--4-5------------|


Chorus (1:07)
e-----------------------------------------------------|
B-----------------------------------------------------|
G-----------------------------------------------------|
D------5-3------------------------5-3-----------------|
A----------5-66xx6-8-5----------------5-6-------------|
D-5--5-----------------8-5---5--5---------------------|

e-----------------------------------------------------|
B-----------------------------------------------------|
G-----------------------------------------------------|
D------5-3------------------------5-3-----------------|
A----------5-66xx6-8-5----------------5-6-------------|
D-5--5-----------------8-5---5--5---------------------|


Verse 2 (1:23)
e-----------------------------------------|
B-----------------------------------------|
G--12-12--12-8--8--101010--12-12--12-8----|
D--12-12--12-8--8--101010--12-12--12-8----|
A--10-10--10-6--6--9-9-9---10-10--10-6----|
D-----------------------------------------|

e-------------------------------------------------|
B-------------------------------------------------|
G--12-12--12-8--8--101010--12-12--12-8--8-8-1010--|
D--12-12--12-8--8--101010--12-12--12-8--8-8-1010--|
A--10-10--10-6--6--9-9-9---10-10--10-6--6-6-8-8---|
D-------------------------------------------------|


Prechorus (1:39)
e-----------------------------------------------------|
B-----------------------------------------------------|
G-----------------------------------------------------|
D------5-3------------------------5-3-----------------|
A----------5-66xx6-8-5----------------5-6-------------|
D-5--5-----------------8-5---5--5---------------------|

e-----------------------------------------------------|
B-----------------------------------------------------|
G-----------------------------------------------------|
D------5-3------------------------5-3-----------------|
A----------5-66xx6-8-5----------------5-6-------------|
D-5--5-----------------8-5---5--5---------------------|

(1:55)
e--------------------------------------------------------------3---------------|
B--------------------------8-6-----------------------------------3-------------|
G--8--8-7-5--------------------7-5-5-5--7-8--8-7-5-----------------5-5-/7-5----|
D--8--8-----8-0-0-0--4-5-5-------5-5-5--7-8--8-----8-0-0-0--4---------------8\-|
A--6--6-------0-0-0--4-5---------3-3-3--5-6--6-------0-0-0--4------------------|
D-------------0-0-0--4-5-----------------------------0-0-0--4------------------|


Breakdown (2:13)
e-------------------------------------------------------------------------------|
B-------------------------------------------------------------------------------|
G-------------------5555555555555555-88888888-1010101010101010------------------|
D--5555555555555555-5555555555555555-88888888-1010101010101010-5555555555555555-|
A--5555555555555555-3333333333333333-66666666-8-8-8-8-8-8-8-8--5555555555555555-|
D--5555555555555555--------------------------------------------5555555555555555-|


Solo (2:30)
e---------------------------------------------------------------------------|
B--/15~-13b15-15r13-12-13-12-------------13b15-13b15-13~--------------------|
G----------------------------12~--14-15~------------------12-14-14b16~~-----|
D---------------------------------------------------------------------------|
A---------------------------------------------------------------------------|
D---------------------------------------------------------------------------|


Chorus (2:45)
e-----------------------------------------|
B-----------------------------------------|
G--12-12--12-8--8--101010--12-12--12-8----|
D--12-12--12-8--8--101010--12-12--12-8----| x 2
A--10-10--10-6--6--9-9-9---10-10--10-6----|
D-----------------------------------------|

e-----------------------------------------------------|
B-----------------------------------------------------|
G-----------------------------------------------------|
D--------5-3------------------------5-3---------------|
A------------5-66xx6-8-5----------------5-6-----------|
D-(5)--5-----------------8-5---5--5-------------------|

e-----------------------------------------------------|
B-----------------------------------------------------|
G-----------------------------------------------------|
D------5-3------------------------5-3-----------------|
A----------5-66xx6-8-5----------------5-6-------------|
D-5--5-----------------8-5---5--5---------------------|
Suggest correction
Give kudos to tab author, rate the tab!
1 2 3 4 5
comments
print report bad tab
guest
You may want to rate the tab now too:
select rating
Please do not post tabs as comments. Select "correction" instead!