Oops, an error
Loading. Please wait.

Lets Get Lost intro tab

version 1
version 1

Intro

by G-Eazy
667 views 6 this week
2 commentsread comments
1 2 3 4 5
x 4
add to favorites
×
Save as Personal and add changes to this tab that will be seen only by you. Learn more ›
×
You can save this tab as Personal to edit and correct it or add notes. All changes will be seen only by you. Learn more »
launch autoscroll
font size
0
reset
how to read this tab
guitar tuner
edit
Autoscroll
slow
fast
+/-
esc
set tempo
stop
Author
[Intro]


e|0-3-3-0-3-3-3-3/5-0-----------------------------------|
b|---------------------3-1-1----1-3/5--(2x)-------------|
c|----------------------------2-------------------------|
d|------------------------------------------------------|
A|------------------------------------------------------|
E|------------------------------------------------------|

e|----------------------------------------12--10--8-----|
b|-3-1-3/5-5-5--8-5-8/10-10-10/8-5--------10--8---6-----|
c|------------------------------------------------------|
d|------------------------------------------------------|
A|------------------------------------------------------|
E|------------------------------------------------------|



************************************

| /  Slide up

************************************

            
            
Suggest correction
Creating personal tab
Creating personal tab
You can edit any tab online and save it as your Personal.

You can edit, replace or remove any tab part or add personal notes – all changes will be seen only by you.

Personal tabs can be accessed anytime from any device, even offline.
Learn more »
comments
print report bad tab
2 comments total.
0 reply
FireWolf101 10 Nov 03, 2016 11:05 PM

Spot on! Lots of fun to play, keep up the great work

0 reply
FireWolf101 10 Nov 03, 2016 11:06 PM

Definitely earned 5 stars

guest
You may want to rate the tab now too:
select rating
Wanna post a correction for this tab? Suggest correction