Oops, an error
Loading. Please wait.

Ahora O Nunca Bass

by G3
57 views 1 this week
no commentswrite comment
1 2 3 4 5
3 more votes to show rating
add to favorites
launch autoscroll
font size
0
reset
guitar tuner
×
Best way to learn
"Ahora O Nunca"
Autoscroll
slow
fast
+/-
esc
set tempo
stop
esta es un transcripcion ke hice pasandola de los akodes
de guitarra a bajo asi ke kreo ke estan
el koro es el ke mas se me difikulto

(*)=artas vecez ( ai ke tener en kuenta la guitarra
kudno kamibe de akode kamiba de nota)

kuadno la guitarra empiesa la priemra ronda va sola
luego kaudno la bateria va dando kaña ala 3 empiesa

INTRO

G----------------------------------------------------
D---------------------------------------------------- X2
A--5-5555-5-5555--------3----------------------------
E----------------6-6666---5-6------------------------

1 ERA ESTROFA

G----------------------------------------------------
D----------------------------------------------------
A--5-5555-5-5555--------3---------------------------- X4
E----------------6-6666---5-6------------------------


CORO

G----------------------------------------------------
D-----------------------------3-2--------------------
A-------------------------55------3------------------
E---3*---5*---6*/5*---3*-----------------------------
(6*/5*) en la misma linea


INTRO

G----------------------------------------------------
D---------------------------------------------------- X2
A--5-5555-5-5555--------3----------------------------
E----------------6-6666---5-6------------------------


2 ESTROFA


G----------------------------------------------------
D----------------------------------------------------
A--5-5555-5-5555--------3---------------------------- X4
E----------------6-6666---5-6------------------------

CORO

G----------------------------------------------------
D-----------------------------3-2--------------------
A-------------------------55------3------------------
E---3*---5*---6*/5*---3*-----------------------------


RITMO VAKERO(todo este pedaso se repite 4 veces)
al ritmo de la guitarra
                                                     |
G----------------------------------------------------|
D----------------------------------------------------|
A-5-55-5-55-5-55-5-55--------------------------------|
E---------------------6-66-6-66-6-66-6-66------------|
                                                     |
                                                     |x4
                                                     |
G----------------------------------------------------|
D----------------------------------------------------|
A-3-33-3-33-3-33-3-33 -------------------------------|
E----------------------5-55-5-55-5-55-5-55-----------|


3ra STROFA

G----------------------------------------------------
D----------------------------------------------------
A--5-5555-5-5555--------3----------------------------
E----------------6-6666---5-6------------------------   x 4

G----------------------------------------------------
G-----------------------3----------------------------
A--5-5555-5-5555-------------------------------------
E----------------6-6666---5-6------------------------

Final 3 estrofa

G----------------------------------------------------
D----------------------------------------------------
A---5------------------------------------------------
E----------------------------------------------------

aka se repite el intro i el koro asta ke se akabe el solo
luego se repite esto

G----------------------------------------------------
D-------3-2-------3-2-------3-2----------------------
A---55------3--55-----3--55-----3--------------------
E----------------------------------------------------
Suggest correction
Give kudos to tab author, rate the tab!
1 2 3 4 5
comments
print report bad tab
guest
You may want to rate the tab now too:
select rating
Wanna post a correction for this tab? Suggest correction