Oops, an error
Loading. Please wait.

Utilizado Tab

by G3
52 views 1 this week
no commentswrite comment
1 2 3 4 5
3 more votes to show rating
add to favorites
launch autoscroll
font size
0
reset
how to read this tab
guitar tuner
×
Best way to learn
"Utilizado"
Autoscroll
slow
fast
+/-
esc
set tempo
stop
Intro: D#5 C#5 E5 D#5


D#5             C#5          E5      D#5
que es lo que sucede que ya nada es igual
D#5             C#5        E5      D#5
Ellos te han cambiado la forma de pensar
D#5             C#5          E5      D#5
Actuaste enmascarado por un simple disfraz
D#5          C#5        E5        D#5
Fuiste manipulado, utilizado nada mas


A#5             C#5   C5 B5
Ahora ya es demasiado tarde
A#5                 C#5  C5
Muy tarde como para regresar
A#5                   C#5   C5 B5
Te hundiste demasiado en tu juego
A#5                  C#5 C5
Como para que puedas escapar


G#5                 A#5
Ahora eres uno mas, solo un titere mas
C#5                 D#5
Seras maipulado, utilizado  x2


D#5             C#5       E5      D#5
Ya no eres el mismo, el odio te inundo
D#5             C#5          E5      D#5
No miras, te sonries, solo vale tu opinion
D#5             C#5            E5     D#5
Primeras impresiones y ni un cruze de voz
D#5           C#5               E5    D#5
Recuerda no puedes creer  tus ojos primero


A#5             C#5   C5 B5
Ahora ya es demasiado tarde
A#5                 C#5  C5
Muy tarde como para regresar
A#5                   C#5   C5 B5
Te hundiste demasiado en tu juego
A#5                  C#5 C5
Como para que puedas escapar


G#5                 A#5
Ahora eres uno mas, solo un titere mas
C#5                 D#5
Seras maipulado, utilizado  x2


 D#5 C#5 E5 D#5
y no             x4


|---------------------------------------------
|-------------------------8-------------------
|---------6-8-9-8-6-8-6-8---8-6-5-6-5---------
|-8-88-66-----------------------------8-9-6~~-
|-6-66-44-------------------------------------
|---------------------------------------------

|-------------------------------------------------------
|-8-8-8h9-8h9h11-9-8---8h9-8-8h9-11h12p11-9-8-----------
|--------------------9------------------------9-6-8h9-8-
|-------------------------------------------------------
|-------------------------------------------------------
|-------------------------------------------------------

|-------------------------------------------
|-------------------------------------------
|-8-8-8-6-4-6--4-4-4-3h4-4-1-3-3h4-3h4-6-8--
|-------------------------------------------
|-------------------------------------------
|-------------------------------------------

|---------------------------------------------------------
|-----8---8-9-11-8h9-12-11-9-8----------------------8-----
|-8h9---9----------------------9-9h12-11-9-8--6-8h9---9-8-
|---------------------------------------------------------
|---------------------------------------------------------
|---------------------------------------------------------


A#5 C#5 C5 B5

A#5 C#5 C5

A#5 C#5 C5 B5

A#5 C#5 C5


G#5                 A#5
Ahora eres uno mas, solo un titere mas
C#5                 D#5
Seras maipulado, utilizado  x2


 D#5 C#5 E5 D#5
y no             x2
Suggest correction
Give kudos to tab author, rate the tab!
1 2 3 4 5
comments
print report bad tab
guest
You may want to rate the tab now too:
select rating
Wanna post a correction for this tab? Suggest correction