Oops, an error
Loading. Please wait.

Violencia Fabricada Tab

by G3
36 views 1 this week
no commentswrite comment
1 2 3 4 5
3 more votes to show rating
add to favorites
launch autoscroll
font size
0
reset
how to read this tab
guitar tuner
Autoscroll
slow
fast
+/-
esc
set tempo
stop
Help us to improve Ultimate-Guitar.com Take our survey!
×
intro: bajo

G------------------------------------------------------------------
D------------------------------------------------------------------
A--------5-----3-----2---------------------------------------------
E----7-7---5-5---3-3---2-2-2-2-2-2---------------------------------

guitarra..

      B5       D5  A5           C5  G5        B5 F#5      
e------------------------------------------------------------------
b---------------3------------3------------3------------------------
g----3/4-4-4---------4-4-4-------4--4--4-----4-4--4---------------- 
d------------------------------------------------------------------ x2
a------------------------------------------------------------------
e------------------------------------------------------------------

     B5       D5  A5           C5  G5        B5 F#5      
e------------------------------------------------------------------
b----5/7--7-7-7--5/7---7-7-7-5/7---7-7-7---5/7---------------------
g------------------------------------------------------------------
d------------------------------------------------------------------ 
a------------------------------------------------------------------
e------------------------------------------------------------------

     B5       D5  A5           C5  G5        B5 F#5
e----7----7-------7------7-----7------------7----------------------
b-----7--7--7----7--7--7---7-7---7---7-7--7------------------------
g------------------------------------------------------------------
d------------------------------------------------------------------ x2
a------------------------------------------------------------------
e------------------------------------------------------------------

* PUNTEO

     B5       D5  A5           C5  G5        B5 F#5      
e------------------------------------------------------------------
b------------------------------------------------------------------ 
g------------------------------------------------------------------ 
d----9-9-9---9-11-12-11-9-11-11-9-11-12-12-12-11-12-11-11-11-11---- 
a----------12------------------------------------------------------
e------------------------------------------------------------------

     B5       D5  A5           C5  G5        B5 F#5      
e------------------------------------------------------------------
b------------------------------------------------------------------ 
g------------------------------------------------------------------ 
d----9-9-9---9-11-12-11-9-11-11-9-11-12-12-12-11-12/14-14-14-14-14- 
a----------12------------------------------------------------------
e------------------------------------------------------------------

x2      D----9------


B5                     D5      
Frente a una botella te encontraras, 
 B5                   C5     F5 C5
tomaras la violencia con apuro
B5                     D5      
en un momento todo se te olvidara, 
  B5                    C5       F5 C5
y a tu alrededor no quedara nada mas que 


B5   D5  A5           C5  G5     B5   F#5
tu violencia desatada y tu violencia fabricada  X2

B5                D5
No respetaras a los demás, 
B5                C5     F5 C5      
Solo golpes querrás dar
B5             D5
El tiempo pasara largamente, 
B5                C5     F5 C5      
Y tu de nada te acordaras nada mas por 


B5   D5  A5           C5  G5     B5   F#5
tu violencia desatada y tu violencia fabricada  X2

B5      D5      B5      C5 F5 C5  x4
REPETIR *PUNTEO
ESTROFA Y CORO

la mejor banda del mundo


KrozbY
Suggest correction
Give kudos to tab author, rate the tab!
1 2 3 4 5
comments
print report bad tab
guest
You may want to rate the tab now too:
select rating
Wanna post a correction for this tab? Suggest correction