Oops, an error
Loading. Please wait.

Front Porch Lounger tab

version 2
version 2

Whole song

5,252 views 12 this week
1 commentread comment
1 2 3 4 5
x 6
add to favorites
×
Save as Personal and add changes to this tab that will be seen only by you. Learn more ›
×
You can save this tab as Personal to edit and correct it or add notes. All changes will be seen only by you. Learn more »
launch autoscroll
font size
0
reset
how to read this tab
guitar tuner
edit
Autoscroll
slow
fast
+/-
esc
set tempo
stop
Artist:G.Love and Special Sauce
Song  :Front Porch Lounger
Album :The Hustle
play along with the song if possible
based on the original tab

Verse/Kickin It

E---0-----------------------------0-------------------|
B---2-----------------------------2-------------------|
G---2---------2-------2h4h2-------2---------2-------2-|
D---2---2/4-------4---2----4h2----2---2/4-------4---2-|
A---0-----------------------------0-------------------|
E---0-----------------------------0-------------------|


Chorus
           "and I know that this song will never end"
   C  C     Gma7 Gma7            A        A
---0--0-----0----0---------------5--------5----------------------------------|
---1--1-----3----3---------------5--------5----------------------------------|
---0--0-----4----4---------------6--------6----------------2-------2h4h2-----|
---2--2-----4----4---------------7--------7----------2/4-------4---2-----4h2-|
---3--3-----x----x---------------7--------7----------------------------------|
---0--0-----3----3---------------5--------5----------------------------------|

            
            
Suggest correction
Creating personal tab
Creating personal tab
You can edit any tab online and save it as your Personal.

You can edit, replace or remove any tab part or add personal notes – all changes will be seen only by you.

Personal tabs can be accessed anytime from any device, even offline.
Learn more »
comments
print report bad tab
1 comment total.
0 reply
storz 155 Jun 07, 2009 09:03 PM

Pretty good dude but i like to use these chords for the chorus
--8--8--x--7--7--x--5--5--x-
--8--8--x--7--7--x--5--5--x-
--7--7--x--7--7--x--6--6--x-
--10-10-x--9--9--x--7--7--x-
--10-10-x--9--9--x--7--7--x-
--8--8--x--7--7--x--5--5--x-

Which (i think) is C, Bm, A
strum it down, up then mute/slap the strings to the fret board

it also makes it easier to play the verse riff up at 7th and 9th fret and use a barred A as well

guest
Wanna post a correction for this tab? Suggest correction