Oops, an error
Loading. Please wait.

Goodbye chords

50 views 1 this week
no commentswrite comment
1 2 3 4 5
3 more votes to show rating
add to favorites
×
Save as Personal and add changes to this tab that will be seen only by you. Learn more ›
×
You can save this tab as Personal to edit and correct it or add notes. All changes will be seen only by you. Learn more »
launch autoscroll
font size
0
reset
transpose
0
reset
display chords
guitar tuner
edit
Autoscroll
slow
fast
+/-
esc
set tempo
stop
Author
Difficulty
Strumming
There is no strumming pattern for this song yet. and get +5 IQ
[Intro]

G#m  F#   E    x2


[Verse 1]

            G#m         F#
Each every one of you builds me up
 E
Piece by piece by piece
            G#m             F#
And all the memories we've built so far
      E
will never see defeat

        G#m                 F#
As the time goes on we're chasin' by
     E
a future to unfold
            G#m               F#
And as our paths divide we reach a darkness
    E
A story left untold


[Chorus]

     C#m                   Ebm   E
And now, we're running out of time
                  G#m
I'm feeling terrified
                  F#
Is this our last goodbye?
 G#m  A                      B   C#m
But now, we'll leave the past behind
                    Ebm   E
And find out what will come to us
                              B
in the path in which we'll thrive


[Instrumental]

G#m   F#   E    x2


[Verse 2]

           G#m               F#
The last minute comes, we wave goodbye
         E
As we try to look back 
              G#m               F#
But as the present stops, the past runs by
 E
Our hearts attack

             G#m          F#
With the emotions of a fighter
              E
Who stands alone on the battlefield
               G#m             F#
But on the front lines, we stand as one
  E
Shielding what we built


[Chorus]

     C#m                   Ebm   E
And now, we're running out of time
                  G#m
I'm feeling terrified
                  F#
Is this our last goodbye?
 G#m  A                      B   C#m
But now, we'll leave the past behind
                    Ebm   E
And find out what will come to us
                              B
in the path in which we'll thrive


[Solo]

e|--------------------------------------------------------------------------------|
B|--------------------------------------------------------------------------------|
G|-----------6--9----8h9----8-9-8-6-8-6---6---------------------------------------|
D|---1/6--9-----------------------------9---9-6-9-6---6---------------------------|
A|--------------------------------------------------9---9-7--9--9/11-7--7h9p7-----|
E|--------------------------------------------------------------------------------|


e|--------------------------------------------------------------------------------|
B|--------------------------------------------------------------------------------|
G|-----------6-9-8--8h9p8--6--8--6-----6--6h8-------------------------------------|
D|-------6-9------------------------9----------9--9/11--9/8--6/4---4-4-4-6--6/7---|
A|---7-9--------------------------------------------------------------------------|
E|--------------------------------------------------------------------------------|

e|--------------------------------------------------------------------------------|
B|--------------------------------------------------------------------------------|
G|--------------------------------------------------------------------------------|
D|---7-7-7-9--9/11--9--7-6--4/6--6h7p6--4/2------2h4--4/6--4/2--4/6--4--2-4--2h4--|
A|--------------------------------------------------------------------------------|
E|--------------------------------------------------------------------------------|


[Chorus]

     C#m                   Ebm   E
And now, we're running out of time
                  G#m
I'm feeling terrified
                  F#
Is this our last goodbye?
 G#m   A                     B   C#m
But now, we'll leave the past behind
                    Ebm   E
And find out what will come to us
                              B
in the path in which we'll thrive



************************************

| h  Hammer-on
| p  Pull-off
| /  Slide up

************************************

            
            
Suggest correction
Creating personal tab
Creating personal tab
You can edit any tab online and save it as your Personal.

You can edit, replace or remove any tab part or add personal notes – all changes will be seen only by you.

Personal tabs can be accessed anytime from any device, even offline.
Learn more »
Give kudos to tab author, rate the tab!
1 2 3 4 5
comments
print report bad tab
guest
You may want to rate the tab now too:
select rating
Wanna post a correction for this tab? Suggest correction