Oops, an error
Loading. Please wait.

Pirates Tab

290 views 1 this week
no commentswrite comment
1 2 3 4 5
please rate
add to favorites
launch autoscroll
font size
0
reset
how to read this tab
guitar tuner
Autoscroll
slow
fast
+/-
esc
set tempo
stop
Help us to improve Ultimate-Guitar.com Take our survey!
×
Author
-------------------------------------------------------------------------------
                                                      Pirates by Gabby La La
-------------------------------------------------------------------------------

Email: ryjbiss@yahoo.com

Tuning: Standard

Intro:

e|-00000000000-2-3--000000000-3-2--000000000-2-3----------------|
B|------------------------------------------------------111-0---|
G|------------------------------------------------00000---------| x2
D|--------------------------------------------------------------|
A|--------------------------------------------------------------|
E|--------------------------------------------------------------|

e|-----------------------------------------| <----------
B|--1111------0000-------------------------|           |
G|-------2222-----------0000---------------|           |
D|-----------------2222------------2-4-5---|           |
A|---------------------------2222--2-4-5---|           |
E|-----------------------------------------|           |
                                                       ---- x2
e|-----------------------------------------|           |
B|--1111------0000-------------------------|           |
G|-------2222-----------0000---------------|           | 
D|-----------------2222------------2-4-2---|           |
A|---------------------------2222--2-4-2---|           |
E|-----------------------------------------| <----------

e|-----------------------------|
B|-----------------------------|
G|-----------------------------| x4
D|------------2222-------------|
A|-------2222------2222--------|
E|---0-0----------------0-0----|

e|------------------------------------------------------------------|
B|------------------------------------------------------------------|
G|------------------------------------------------------------------|
D|------------5555---------------3333---------------2222------------|
A|-------5555------5555-----3333------3333-----2222------2222-------|
E|---3-3----------------1-1----------------0-0----------------0-0---|

Verse:
    Em                 Am                 Em             Am
e|--------0-x-0-x-0-x-------0-x-0-x-0-x-----------------------|
B|-------0--x-0-x-0-x------1--x-1-x-1-x-----------------------|
G|------0---x-0-x-0-x-----2---x-2-x-2-x-----------------------|
D|-----2----x-2-x-2-x----2----x-2-x-2-x-----------------------|
A|----2-----x-2-x-2-x---0-----x-0-x-0-x-----------------------|
E|---0------x-0-x-0-x-----------------------------------------|


Repeat intro after 1st verse.

Verse 2

Outro: Same as the intro.
Suggest correction
What's this?
You can suggest a correction to this tab. Community and Mods will review your correction and vote to approve or reject it.
comments
We did not receive enough feedback on this tab! Please rate:
print report bad tab
1 2 3 4 5
guest
You may want to rate the tab now too:
select rating
Please do not post tabs as comments. Select "correction" instead!