Oops, an error
Loading. Please wait.

Gentlemen Dont Tab

version 1
version 1

Whole song

45,143 views 27 this week
2 commentsread comments
1 2 3 4 5
x 5
add to favorites
launch autoscroll
font size
0
reset
how to read this tab
guitar tuner
Autoscroll
slow
fast
+/-
esc
set tempo
stop
Help us to improve Ultimate-Guitar.com Take our survey!
×
Author
Gabe Bondoc - Gentlemen Don't
Tabbed by : Lawrence A. aka Monsteez

CHORDS USED: (557675) (x46454) (7x777x) (6x666x) (5x555x) (3x443x) (2x2330) (x7577x) 
(x2121x)
---------------------------------------- -------------------------------------

INTRO/VERSE
Notes in parenthesis denote another variation on the preceeding note.

e|--------------5----------------------- ---------------------5-(5)---|
B|------5-5h7-----5---5/7------------5 --------3-3-2h3--------7-(5)---|
G|----7-------------------7~-7-6-5h7---7 ------4-3----------6---------|
D|--7---------7-----6~----7~-7-6-5 ----------4---2--------7-----------|
A|--------5~------4-------x--x-x-x --------------x-----/5-------------|
E|------------------------7~-7-6-5 --------3-----2--------------------|

---------------------------------------- -------------------------------------

CHORUS

e|-------------------------------------- ---------------------5---|
B|--------7-7-7--5-5-5--1-1-----1-1--7 ---------7-7-7-------5-----|
G|--------7-7-7--5-5-5--2-2-----2-2--7 ---------7-7-7-----7-------|
D|--------5-5-5--4-4-4--1-1-----1-1--x-- 7-9-11-5-5-5---7---------|
A|--5-7-9-7-7-7--5-5-5--2-2-0h2-2-2--7 ---------7-7-7-------------|
E|-------------------------------------- 7-9-10-------5-----------|

---------------------------------------- -------------------------------------

BRIDGE
The last chord is only possible if you use your thumb on the low E string and
your pinky on the high E string.

e|-------------------------------|
B|--3-3-3--3-3-2--0-0-0--0~--3---|
G|--4-4-4--3-3-3--0-0-0--0~--3---|
D|--4-4-4--2-2-2--0-0-0--0~--2---|
A|--x-x-x--x-x-x--x-x-x--x---x---|
E|--3-3-3--2-2-2--0-0-0--0~--2---|

e|-----------------------------------5 -----5~---|
B|--3-3-3--3-3-2--0-0-0--0~--------3---3 ---3~---|
G|--4-4-4--3-3-3--0-0-0--0~------4 -------4-4~---|
D|--4-4-4--2-2-2--0-0-0--0~----4 -----------4~---|
A|--x-x-x--x-x-x--x-x-x-- x----------------------|
E|--3-3-3--2-2-2--0-0-0--0~--3 -------------3~---|
Suggest correction
comments
print report bad tab
2 comments total.
0 reply
arrhenius 10 Nov 15, 2008 08:25 PM

the last part of the intro sounds wrong, i think it sounds like:
e-----------------
B--------3--2-2h3-
G-----4-----------
D-----------------
A----4-------------
E-----------------
but other than that nice job, havn't played the whole thing yet =p

0 reply
bjfernando49 10 Nov 27, 2008 11:26 PM

im sucha noob at this. I cant bar at all =\

guest
You may want to rate the tab now too:
select rating
Wanna post a correction for this tab? Suggest correction