Oops, an error
Loading. Please wait.

Hey Father Tab

3,169 views 3 this week
no commentswrite comment
1 2 3 4 5
please rate
add to favorites
launch autoscroll
font size
0
reset
how to read this tab
guitar tuner
Autoscroll
slow
fast
+/-
esc
set tempo
stop
Help us to improve Ultimate-Guitar.com Take our survey!
×
-------------------------------------------------------------------------------
                             Hey Father - Gabe Bondoc
-------------------------------------------------------------------------------
Tabbed by:Jim Vang
Email:azn_jimvang@hotmail.com

Tuning:Standard

Well this is my first tab ever!!! So happy i got it done for you guys :D
So enjoy! I did this by watching and hearing what he played and it sounds quite right. 
There are also suppose to be taps in it but i didnt know where to put them so try your best :)


Verse 1 (2x)
e|--------|------------------------|-----------|-----------|
B|--3--3--|---3--------------------|-----------|--3-----3--|
G|--2--2--|-0h1--1-----1--2--4--5--|--5-----5--|--0--0--5--|
D|--------|------------------------|--5--5--5--|--4-----4--|
A|--------|---2-----2--------------|-----------|--5-----5--|
E|--3--3--|------------------------|--5-----5--|-----------|

e|--------|-----------|-----------|-----------|
B|--3--3--|-----------|-----------|--3-----3--|
G|--2--2--|-----------|--5-----5--|--0--0--5--|
D|--3--3--|--6-----6--|--5--5--5--|--4-----4--|
A|--2--2--|--7--7--7--|-----------|--5-----5--|
E|--------|--0-----0--|--5-----5--|-----------|


Chorus
e|--------------|-----------|-----------|-----------|
B|--------------|-----------|-----------|--3-----3--|
G|--2-----------|--1-----1--|--5-----5--|--0--0--5--|
D|--3--3--------|--0--0--0--|--5--5--5--|--4-----4--|
A|--2-----1--2--|--2-----2--|-----------|--5-----5--|
E|--------------|-----------|--5-----5--|-----------|

e|--------------|-----------|-----------|-----------|
B|--------------|-----------|--5-----5--|--3-----3--|
G|--2-----------|--1-----1--|--5--5--5--|--0--0--5--|
D|--3--3--------|--0--0--0--|-----------|--4-----4--|
A|--2-----0--2--|--2-----2--|--5-----5--|--5-----5--|
E|--------------|-----------|-----------|-----------|


Verse 2
e|--------|------------------------|-----------|-----------|
B|--3--3--|---3--------------------|-----------|--3-----3--|
G|--2--3--|-0h1--1-----1--2--4--5--|--5-----5--|--0--0--5--|
D|--------|------------------------|--5--5--5--|--4-----4--|
A|--------|---2-----2--------------|-----------|--5-----5--|
E|--3--3--|------------------------|--5-----5--|-----------|

e|--------|-----------------------|-----------|-----------|
B|--3--3--|-----------------------|-----------|--3-----3--|
G|--2--2--|--1--------1--2--4--5--|--5-----5--|--0--0--5--|
D|--3--3--|--0--0-----------------|--5--5--5--|--4-----4--|
A|--2--2--|--2-----2--------------|-----------|--5-----5--|
E|--------|-----------------------|--5-----5--|-----------|



Back to Chorus



| /  slide up
| \  slide down
| h  hammer-on
| p  pull-off
| ~  vibrato
| +  harmonic
| x  Mute note
===============================================================================
Suggest correction
Give kudos to tab author, rate the tab!
1 2 3 4 5
comments
print report bad tab
guest
You may want to rate the tab now too:
select rating
Please do not post tabs as comments. Select "correction" instead!