Oops, an error
Loading. Please wait.

If Only Tab

8,267 views 1 this week
no commentswrite comment
1 2 3 4 5
1 last vote to show rating
add to favorites
launch autoscroll
font size
0
reset
how to read this tab
guitar tuner
Autoscroll
slow
fast
+/-
esc
set tempo
stop
Help us to improve Ultimate-Guitar.com Take our survey!
×
Author
-----------------------------------------------------------------------------
                "If Only" - Gabe Bondoc
-----------------------------------------------------------------------------
TUNING: Flat Standard Tuning (half step down)
 6  5  4  3  2  1   (String Number)
|Eb|Ab|Db|Gb|Bb|eb| (Low to high)
-----------------------------------------------------------------------------
I did not tab this, but I couldn't find the author.
-----------------------------------------------------------------------------
DIFFICULTY LEVEL: Easy
-----------------------------------------------------------------------------
CHORDS USED: (022100)  (034200)  (343433)  (xx2222)  (4x444x)
-----------------------------------------------------------------------------

     VERSE: These are just the gernal patterns.
eb|----0----------------0-0---------------------|
Bb|----0--0~------------0-0--0-0--------0-------|
Gb|--1----2~-------2--1------2-2------2---2-----|
Db|--2----4~------4---2------4-4----4-------4---|
Ab|-------3~-3--3------------3-3--3-------------|
Eb|--0----------------0-------------------------|

eb|----0-0------------------------1/2~---|
Bb|----0-0--3~-----------------2--1/2~---|
Gb|--1------4~--------4------2----1/2~---|
Db|--2------3~------3------2------1/2~---|
Ab|---------4~-4--4----------------------|
Eb|--0-------------------2---------------|


     CHORUS                              
eb|----------x---------1/2---|
Bb|--4-4--3~-x-3--2-2--1/2---|
Gb|--4-4--4~-x-4--2-2--1/2---|
Db|--4-4--3~-x-3--2-2--1/2---|
Ab|--x-x--4~-x-4--x-x--------|
Eb|--4-4-----x----2-2--------|

FILL: Mix this in with the chords

eb|-------------------------------------------|
Bb|------------2--3--2------------------------|
Gb|------1-2-4---------4--2-4-1---------------|
Db|--2-4------------------------2-2-2---2-4---|
Ab|-----------------------------------4-------|
Eb|-------------------------------------------|

-----------------------------------------------------------------------------
(x= mute/slap) (/= slide up/down) (h= hammer on) (p= pull off) (~= let ring)
Suggest correction
Give kudos to tab author, rate the tab!
1 2 3 4 5
comments
print report bad tab
guest
You may want to rate the tab now too:
select rating
Wanna post a correction for this tab? Suggest correction