Oops, an error
Loading. Please wait.

One Touch Tab

version 1
version 1

Whole song

16,222 views 1 this week
no commentswrite comment
1 2 3 4 5
x 6
add to favorites
launch autoscroll
font size
0
reset
how to read this tab
guitar tuner
Autoscroll
slow
fast
+/-
esc
set tempo
stop
Help us to improve Ultimate-Guitar.com Take our survey!
×
Gabe Bondoc -One Touch
Standard Tuning.

e|-------------------------------------------3-------------------------------|
B|----0h1---3----------3h5-------------------3-------------------------------|
G|----0-----0-------0------------------------0-------------------------------|
D|----0h2---4----4------------------0----------------------------------------|
A|-0--------5-------------------0h2----3--------3--2--0----------------------|
E|---------------------------3-----------------------------------------------|

Listen to the song for tempo and how many times to play that.

then every once and a while...

e|---------------------------------------------------------------------------|
B|-----0h1----1------------1--------------3h5--------------------------------|
G|-----0------0--------0--------------0--------0------0----------------------|
D|-----0h2----2----2---------------4--------------4--------------------------|
A|-0----------0---------------3/5--------------------------------------------|
E|---------------------------------------------------------------------------|

The song is very repetitive.
I don't know about the bridge, but just listen to the song and figure it out.
Suggest correction
comments
print report bad tab
guest
You may want to rate the tab now too:
select rating
Wanna post a correction for this tab? Suggest correction