Oops, an error
Loading. Please wait.

Sea Foam tab

1,735 views 12 this week
no commentswrite comment
1 2 3 4 5
x 3
add to favorites
×
Save as Personal and add changes to this tab that will be seen only by you. Learn more ›
×
You can save this tab as Personal to edit and correct it or add notes. All changes will be seen only by you. Learn more »
launch autoscroll
font size
0
reset
how to read this tab
guitar tuner
edit
Autoscroll
slow
fast
+/-
esc
set tempo
stop
SEA FOAM - Gabe Bondoc

Tabbed by: Kyle Hoefer
Questions? @YouTube KyleHoeferMusic OR Keeilay
Email: kyle8594@yahoo.com

Tuning: Standard EADGBe

Song is off the Twelve EP, however this tab corresponds with his acoustic video posted 
on his YouTube channel. You can find the link below.

https://www.youtube.com/watch?v=HYEyrHo6Iis

Tutorial video will soon be available on my channel.

Depending on your preference this WHOLE song could be mostly palm muted, besides the bridge
which is the only section with full strums.

COUNT: Two counts to 3, followed by a count to 2, strumming emphasis on 1. Ex: >1-2-3-->1-2-3-->1-2


[Intro]

e|-----------------------------------------------------------------------------------------------------------|
B|-----------------------------------------------------------------------------------------------------------|
G|-----------------------------------------------------------------------------------------------------------|
D|------------------------------------------------------9-9-9-14-14-14-14-14-7-7-7-7-7-7-7-7-----------------|
A|-7-7-7-7-7-7-7-7-7-7-7-6-6-6-7-7-(x2)-7-7-7-7-7-7-7-7-6-6-6-11-11-11-11-11-9-9-9-9-9-9-9-9-7-7-7-6---7-7---|
E|-5-5-5-5-5-5-5-5-9-9-9-7-7-7-7-7------5-5-5-5-5-5-5-5--------------------------------------7-7-7-7---4-4---|


[Verse] (x3)

1(sea foam washin over me/draw me in..)  (ankle deep and i'm...)   
2(fallen down waterfall/feel the crash..)(knee deep and i'm...)
3(with a smile/stare at your...)         (the way you say my name...)
e|-------------------------------------|---------------------------------------------------------------------|
B|-------------------------------------|---------------------------------------------------------------------|
G|-------------------------------------|---------------------------------------------------------------------|
D|-------------------------------------|----------------9-9-9-14-14-14-14-14-7-7-7-7-7-7-7-7-----------------|
A|-7-7-7-7-7-7-7-7-7-7-7-6-6-6-7-7-(x2)|7-7-7-7-7-7-7-7-6-6-6-11-11-11-11-11-9-9-9-9-9-9-9-9-7-7-7-6-6-6-7-7-|
E|-5-5-5-5-5-5-5-5-9-9-9-7-7-7-7-7-----|5-5-5-5-5-5-5-5--------------------------------------7-7-7-7-7-7-4-4-|


[Pre-Chorus] (x2)

1(push push pull, pull me down in your undertow..)
2(push push pull, wanna sit by your oceanside..)
e|-----------------------------------------------------------------------|
B|-----------------------------------------------------------------------|
G|-----------------------------------------------------------------------|
D|-------------------------------------------------2-x-x-4-x-x-6-x-(x2)--|
A|-7-x-x-7-x-x-7-x-6-x-x-6-x-x(7)x-7-x-x-7-x-x-7-x-4-x-x-6-x-x-7-x-------|
E|-5-x-x-5-x-x-5-x-7-x-x-7-x-x-7-x-4-x-x-4-x-x-4-x-----------------------|


[Chorus]

(with a body like that, body of water...)                                            (you and the sea..)
e|------------------------------------------------------------------------------------------------------|
B|------------------------------------------------------------------------------------------------------|
G|------------------------------------------------------------------------------------------------------|
D|-----------------------------------------------------------------7-x-x-7-x-x-7-x----------------------|
A|-7-x-x-7-x-x-7-x-6-x-x-6-x-x-6-x-7-x-x-7-x-x-7-x-7-x-x-7-x-x-7-x-9-x-x-9-x-x-9-x-x-7-7-6-x-x-x-x------|
E|-5-x-x-5-x-x-5-x-7-x-x-7-x-x-7-x-8-x-x-8-x-x-8-x-9-x-x-9-x-x-9-x-----------------x-7-7-7-x-x-x-x------|

                   (you and the sea...)
e|-----------------------------------------------------------------------|
B|-----------------------------------------------------------------------|
G|-----------------------------------------------------------------------|
D|-----------------------------------------------------------------------|
A|-7-x-x-7-x-x-7-x-7-x-x-6-x-x(7)x-7-x-x-7-x-x-7-x-x-7-x-x-6-x-7-x-------|
E|-5-x-x-5-x-x-5-x-9-x-x-7-x-x-7-x-5-x-x-5-x-x-5-x-x-9-x-x-7-x-4-x-------|


[Verse] (x3)

1(I still remember/tried to ride it..)   (waist deep but i'm...)   
2(you got everything/and i hope..)       (shoulder deep but i'm ...)
3(with a smile/stare at your...)         (the way you say my name...)
e|-------------------------------------|---------------------------------------------------------------------|
B|-------------------------------------|---------------------------------------------------------------------|
G|-------------------------------------|---------------------------------------------------------------------|
D|-------------------------------------|----------------9-9-9-14-14-14-14-14-7-7-7-7-7-7-7-7-----------------|
A|-7-7-7-7-7-7-7-7-7-7-7-6-6-6-7-7-(x2)|7-7-7-7-7-7-7-7-6-6-6-11-11-11-11-11-9-9-9-9-9-9-9-9-7-7-7-6-6-6-7-7-|
E|-5-5-5-5-5-5-5-5-9-9-9-7-7-7-7-7-----|5-5-5-5-5-5-5-5--------------------------------------7-7-7-7-7-7-4-4-|


[Pre-Chorus] (x2)

1(push push pull, pull me down in your undertow..)
2(push push pull, wanna sit by your oceanside..)
e|-----------------------------------------------------------------------|
B|-----------------------------------------------------------------------|
G|-----------------------------------------------------------------------|
D|-------------------------------------------------2-x-x-4-x-x-6-x-(x2)--|
A|-7-x-x-7-x-x-7-x-6-x-x-6-x-x(7)x-7-x-x-7-x-x-7-x-4-x-x-6-x-x-7-x-------|
E|-5-x-x-5-x-x-5-x-7-x-x-7-x-x-7-x-4-x-x-4-x-x-4-x-----------------------|


[Chorus]

(with a body like that, body of water...)                                             (you and the sea..)
e|------------------------------------------------------------------------------------------------------|
B|------------------------------------------------------------------------------------------------------|
G|------------------------------------------------------------------------------------------------------|
D|-----------------------------------------------------------------7-x-x-7-x-x-7-x----------------------|
A|-7-x-x-7-x-x-7-x-6-x-x-6-x-x-6-x-7-x-x-7-x-x-7-x-7-x-x-7-x-x-7-x-9-x-x-9-x-x-9-x-x-7-7-6-x-x-x-x------|
E|-5-x-x-5-x-x-5-x-7-x-x-7-x-x-7-x-8-x-x-8-x-x-8-x-9-x-x-9-x-x-9-x-----------------x-7-7-7-x-x-x-x------|


[Bridge]

(you, are the one...)     (you, you are...)   (you, you are the time and...)
e|---0---0----0---0-0-----0---0---0---0-0-----0---0---0---0----------------|
B|---0---0----0---0-0-----0---0---0---0-0-----0---0---0---0---5---5--------|
G|---4---4----2---2-2-----4---4---2---2-2-----4---4---2---4---6---6--------|
D|---4---2----2---1/2-----4---2---2---2\1-----4---2---2---4---7---7--------|
A|---x---4----x---2-2-----x---4---x---2-2-----x---4---x---x---x---x--------|
E|---4--------2-----------4-------2-----------4-------2---4---5---7--------|
thumb^                                                PM----->


[Verse] 

(with a smile/stare at your...)         (the way you say my name...)
e|-------------------------------------|-----------------0---0---0---------|
B|-------------------------------------|-----------------0---0---0---5-----|
G|-------------------------------------|-----------------4---4---2---6-----|
D|-------------------------------------|-----------------4---2---2---7-----|
A|-7-7-7-7-7-7-7-7-7-7-7-6-6-6-7-7-(x2)|7-7-7-7-7-7-7-7--x---4---x---x-----|
E|-5-5-5-5-5-5-5-5-9-9-9-7-7-7-7-7-----|5-5-5-5-5-5-5-5--4-------2---7-----|
                                                                PM

[Pre-Chorus]

(push push pull, pull me down in your undertow..)
(push push pull, wanna sit by your oceanside..)
e|-----------------------------------------------------------------------|
B|-----------------------------------------------------------------------|
G|-----------------------------------------------------------------------|
D|-------------------------------------------------2-x-x-4-x-x-6-x-(x2)--|
A|-7-x-x-7-x-x-7-x-6-x-x-6-x-x(7)x-7-x-x-7-x-x-7-x-4-x-x-6-x-x-7-x-------|
E|-5-x-x-5-x-x-5-x-7-x-x-7-x-x-7-x-4-x-x-4-x-x-4-x-----------------------|


[Chorus]

(with a body like that, body of water...)                                             (you and the sea..)
e|------------------------------------------------------------------------------------------------------|
B|------------------------------------------------------------------------------------------------------|
G|------------------------------------------------------------------------------------------------------|
D|-----------------------------------------------------------------7-x-x-7-x-x-7-x----------------------|
A|-7-x-x-7-x-x-7-x-6-x-x-6-x-x-6-x-7-x-x-7-x-x-7-x-7-x-x-7-x-x-7-x-9-x-x-9-x-x-9-x-x-7-7-6-x-x-x-x------|
E|-5-x-x-5-x-x-5-x-7-x-x-7-x-x-7-x-8-x-x-8-x-x-8-x-9-x-x-9-x-x-9-x-----------------x-7-7-7-x-x-x-x------|

                   (you and the sea...)
e|-----------------------------------------------------------------------|
B|-----------------------------------------------------------------------|
G|-----------------------------------------------------------------------|
D|-----------------------------------------------------------------------|
A|-7-x-x-7-x-x-7-x-7-x-x-6-x-x(7)x-7-x-x-7-x-x-7-x-x-7-x-x-6-x-7-x-------|
E|-5-x-x-5-x-x-5-x-9-x-x-7-x-x-7-x-5-x-x-5-x-x-5-x-x-9-x-x-7-x-4-x-------|

Repeats until fade out..


************************************


| /  slide up
| \  slide down
| h  hammer-on
| p  pull-off
| ~  vibrato
| +  harmonic
| x  Mute note

************************************

            
            
Suggest correction
Creating personal tab
Creating personal tab
You can edit any tab online and save it as your Personal.

You can edit, replace or remove any tab part or add personal notes – all changes will be seen only by you.

Personal tabs can be accessed anytime from any device, even offline.
Learn more »
Give kudos to tab author, rate the tab!
1 2 3 4 5
comments
print report bad tab
guest
You may want to rate the tab now too:
select rating
Wanna post a correction for this tab? Suggest correction