Oops, an error
Loading. Please wait.

Stronger Than Tab

version 1
version 1

Solo

Whole song

3,802 views 1 this week
1 commentread comment
1 2 3 4 5
please rate
add to favorites
launch autoscroll
font size
0
reset
how to read this tab
guitar tuner
Tab Pro tools
  • play this tab
  • loop segment
  • change instrument
  • show fretboard
  • metronome
×
Best way to learn
"Stronger Than"
Autoscroll
slow
fast
+/-
esc
set tempo
stop
Contributor
----------------------------------------------------------------------------
                     Stronger Than (Solo) - Gabe Bondoc
----------------------------------------------------------------------------

Tabbed by: Alvin A. aka Mark's lover

Email: alvinwasheere@yahoo.com
AIM sn: GetYourFreakXD

Hmmm, well this is my first time tabbing, and I couldn't find the tabs for the solo
So here are the tabs to help anyone that needs it. And please feel free to rate/comment my
If you have any questions or you feel like there's a mistake, please contact me at the
mentioned Email or Sn.

NOTE: THIS IS THE TAB FOR THE ACOUSTIC VERSION OF THIS SONG AND NOT THE ORGINIAL 
This is also not the solo that comes in at the very beginning of the song, but is the solo that 
in near the end. I am still working on the intro for the second guitar, so please be patient.


Tuning: Standard

x - Mute
^ - Slap
/ - Slide Up
h - Hammer On
p - Pull Off
: - Repeat


and I don't mind at all, I don't mind at all. (Solo begins)

e|-------------------------------------------------------------------------|
B|-------------------------------------------------------------------------|
G|-------------------------------------------------------------------------|
D|---9--8--6--8--9----8--6--8--9--10/11----9--8---6--4--6--4--6------------|
A|-------------------------------------------------------------------------|
E|-------------------------------------------------------------------------|


e|-------------------------------------------------------------------------|
B|-------------------------------------------------------------------------|
G|--------------------------------------------10---------------------------|
D|--8--9--10/11----9--8--6--8--9----8--6--8-------11----9---8--------------|
A|-------------------------------------------------------------------------|
E|-------------------------------------------------------------------------|


e|-------------------------------------------------------------------------|
B|-------------------------------------------------------------------------|
G|-------------------------------------------------------------------------|
D|---6--4--6--4--6---8---8h9p8---------------------------------------------|
A|-------------------------------------------------------------------------|
E|-------------------------------------------------------------------------|

Swear I'm stronger than these emotions,
But they're taking over me...


So thats basically it. It's pretty easy considering most of the solo is on one string.
comments
We did not receive enough feedback on this tab! Please rate:
print report bad tab
1 2 3 4 5
1 comment total.
0 reply
lloyd suarez wrote on March 3 2008, 09:18 am

nice tab too buddy! ;)

I want to post or [tab]
guest
You may want to rate the tab now too:
select rating
Please do not post tabs as comments. Select "correction" instead!