Oops, an error
Loading. Please wait.

Stronger Than Tab

version 3
version 3

Whole song

24,360 views 69 this week
2 commentsread comments
1 2 3 4 5
x 11
add to favorites
launch autoscroll
font size
0
reset
how to read this tab
guitar tuner
Autoscroll
slow
fast
+/-
esc
set tempo
stop
Help us to improve Ultimate-Guitar.com Take our survey!
×
Author
Stronger Than | Gabe Bondoc
Tabbed by Lr Suarez.
email: mauicianmuff24@yahoo.com

Pls email me for corrections/suggestions. ;D
Practice along with the original song for correct timing.
Have Fun! ;)

Standard Tuning

[Intro]
 Guitar 1:
e|-----------------x----x---x--------------------|
B|-----------------7----4---2--------------------|
G|-------------6h8-8----4---3--------------------|
D|----4-6-s-8------8----4---3--------------------|
A|4-6--------------x----x---x--------------------|
E|-----------------7----4---2--------------------|
play 2x.

 Guitar 2:
e|--14-13-11-------------------------------6s7-9--7-6s7-9---------|
B|-----------14-11-/11---------------------7s9-11-9-7s9-11--------|
G|---------------------13-11---11-13s15-13------------------------|
D|---------------------------13-----------------------------------|
A|----------------------------------------------------------------|
E|----------------------------------------------------------------|
"woh.."

e|----------------------------------------------------------------|
B|--12-11-9-11-12-11-9-9-11-11s12-11------------------------------|
G|----------------------------------11-8-8s11---------------------|
D|----------------------------------------------------------------|
A|----------------------------------------------------------------|
E|----------------------------------------------------------------|

[Verse]
 Guitar 1:
 "is it my fault i can't speak.."
e|------------------------x---x---x---x--(2)------------------|
B|------------------------7--(6)--4---2--(4)------------------|
G|-----------------6h8----8--(6)--4---3--(3)------------------|
D|------4---6-s--8--------8--(6)--4---3--(2)------------------|
A|4--6--------------------x---x---x---x---x-------------------|
E|------------------------7--(6)--4---2--(2)------------------|

after the first verse, omit the single string pluck *4-6-4-6-s-8..* and just continue 
7x887x after 2x332x/2x2342.

"nothing ever really got to me
i could always turn the other cheek.." -- 2x2342 at the end of "cheek".
--He usually plays the 2x2342 during the 2nd verse onward.

"i swear i'm stronger than these emotions
but they're taking over me"
--puts the 6x666x usually on this parts.

you're the silence in a roaring crowd
you're the equivalent of a fluffy cloud
a genie in a bottle
make a wish to wish the wishes will never end
you're the platinum in my treasure chest
you're the answer that i never woulda guessed

e|--x---x-----|
B|--4--/6--5--|
G|--4--/6--6--|
D|--4--/6--5--|
A|--x---x--6--|
E|--4--/6-----|

you're a love life test
and i don't mind at all
i don't mind at all

e|--x-----|
B|--4--5--|
G|--4--6--|
D|--4--5--|
A|--x--6--|
E|--4-----|

Use this part when guitar2 is playing the lead:

 Guitar 1:
e|--x--x--x--x--|
B|--7--6--4--2--|
G|--8--6--4--3--|
D|--8--6--4--3--|
A|--x--x--x--x--|
E|--7--6--4--2--|

 Guitar 2(on lead):
e|------------------------------------------------------------------|
B|--12-11-9-11-12---11-9-11-12-12s14---12-11-9--9--9-11-12s14-------|
G|--------------------------------------------11-11-----------------|
D|------------------------------------------------------------------|
A|------------------------------------------------------------------|
E|------------------------------------------------------------------|
"woh.."

e|--------------------------13---------------------------------|
B|--12-11-9-11-12---11-9-11--14---12-11-9--9--9-11-12s14-------|
G|---------------------------------------11-11-----------------|
D|-------------------------------------------------------------|
A|-------------------------------------------------------------|
E|-------------------------------------------------------------|

Listen to the original song a lot of time for correct timing and input of optional

************************************

| x    Dead note
| h    Hammer-on
| /    Slide up
| (n)  Ghost note

************************************
Suggest correction
comments
print report bad tab
2 comments total.
0 reply
MikIsSlick 10 Dec 23, 2008 04:54 PM

CORRECTOOOOO

0 reply
nausawaqa 10 Dec 09, 2014 07:53 PM

Thanks man this really helped.. Cheers

guest
You may want to rate the tab now too:
select rating
Wanna post a correction for this tab? Suggest correction