Oops, an error
Loading. Please wait.

The One Tab

1,626 views 3 this week
no commentswrite comment
1 2 3 4 5
please rate
add to favorites
launch autoscroll
font size
0
reset
how to read this tab
guitar tuner
Tab Pro tools
  • play this tab
  • loop segment
  • change instrument
  • show fretboard
  • metronome
×
Best way to learn
"The One"
Autoscroll
slow
fast
+/-
esc
set tempo
stop
Contributor
Difficulty
novice
Gabe Bondoc: The One

tabbed by: Gabriel Mojica


One of my favourite songs from gabe bondoc =]

=============================================================================



e------x----------x--------x--------------x-----------x--------2------x---|
B----4-x--4----4--x--------x--------------x--------4--x--4-----4--4---x---|
G----4-x--4----4--x-----3--x---3---4(p)3--x--------3--x--3--------3---x---|
D----6-x--6----6--x-----4--x---4---4------x--------4--x--4------------x---|
A--4---x-----4----x--------x--------------x---0--2----x------2--------x---|
E------x----------x---2----x---2---2------x-----------x---------------x---|

e-----x-------|
B--5--x----4--|
G--5--x----5--|   repeat
D--4--x----4--|
A-----x-------|
E--4--x----4--|


that's it =]

just mess around with the chords to your liking.


lyrics

The way you laugh with your mouth closed
The way you smile so your eyes glow
It's in the way you look at me to so i can see
.. just who I am inside 

The way my heart doesnt listen
and so it just keeps wishing..
wishing you were close to me so that its beat was
.. synchronized with yours

You're the one, you're the one for me.. sugar.

You're my hero and my best friend
and girl I swear that you're a Godsend
Lovely as a ray of sun.. the very first one
.. just as the day begins

So I got a round trip ticket
but i dont wanna take it.
I only wanna take half
.. and give the other half to somebody who wont waste it.

mmHm.

You're the one, you're the one for me..

Your hand and mine fit perfectly fine
.. and sway below our waists at the perfect height

Faithful and true
to Him and to you..
I will stay forever this way because..

You're the one, you're the one for me.
comments
We did not receive enough feedback on this tab! Please rate:
print report bad tab
1 2 3 4 5
I want to post or [tab]
guest
You may want to rate the tab now too:
select rating
Please do not post tabs as comments. Select "correction" instead!