Oops, an error
Loading. Please wait.

Want You Tab

6,645 views 3 this week
no commentswrite comment
1 2 3 4 5
please rate
add to favorites
launch autoscroll
font size
0
reset
how to read this tab
guitar tuner
Autoscroll
slow
fast
+/-
esc
set tempo
stop
Help us to improve Ultimate-Guitar.com Take our survey!
×
Difficulty
intermediate
want you acoustic by gabe bondoc.   standard tuning

its a real easy song u should be able to catch onto it quickly

intro:         
e|-----x-----x|-----x------|-----------|-----------|
b|-2-2-x-2---x|-----x-0h30-|----3-3h53-|---5h75h75-|
g|-2-2-x-2---x|-1-1-x------|---2-------|-----------|
d|-2-2-x-2---x|-2-2-x------|--4--------|--6--------|
a|-----x-----x|-2-2-x------|-2---------|-4---------|
e|-2-2-x-2---x|-----x------|-----------|-----------|

all verses:
e|-----x------|-----x------x|-----x------x|-----x------x|
b|-2-2-x-2--2-|-----x------x|-3-3-x-3--3-x|-5-5-x-5--5-x|
g|-2-2-x-2--2-|-1-1-x-1--1-x|-----x------x|-----x------x|
d|-2-2-x-2--2-|-2-2-x-2--2-x|-4-4-x-4--4-x|-6-6-x-6--6-x|
a|-----x------|-2-2-x-2--2-x|-2-2-x-2--2-x|-4-4-x-4--4-x|
e|-2-2-x-2--2-|-----x------x|-----x------x|-----x------x|

chorus: aah aah ah ah aah ah shes fine too, but i want you
e|-----x-----x|-----x------x|-----x-----x|-----x------x|
b|-2---x-2---x|-----x------x|-3---x-3---x|-5-5-x-5--5-x|
g|-2---x-2---x|-1-1-x-1--1-x|-----x-----x|-----x------x|
d|-2---x-2---x|-2-2-x-2--2-x|-4---x-4---x|-6-6-x-6--6-x|
a|-----x-----x|-2-2-x-2--2-x|-2---x-2---x|-4-4-x-4--4-x|
e|-2---x-2---x|-----x------x|-----x-----x|-----x------x|

X=palm mute/slap
h=hammer on


Suggest correction
Give kudos to tab author, rate the tab!
1 2 3 4 5
comments
print report bad tab
guest
You may want to rate the tab now too:
select rating
Please do not post tabs as comments. Select "correction" instead!