Oops, an error
Loading. Please wait.

When You Say Nine Tab

25,519 views 1 this week
no commentswrite comment
1 2 3 4 5
accurate
x 6
add to favorites
launch autoscroll
font size
0
reset
how to read this tab
guitar tuner
Autoscroll
slow
fast
+/-
esc
set tempo
stop
Help us to improve Ultimate-Guitar.com Take our survey!
×
Author
"when you say (nine)" - gabe bondoc (copyright, 2010)

K, I updated it to the tutorial video he made. There were some mistakes on the tab 
but nothing that major...anyways here you go (he didn't teach the last part on his tutorial)


Part 1 Intro/Verse/Chorus
E--0--x--0--0----|
B--0--4--0--0----|
G--1--4--2--2----|
D--4--2--2--1----|
A--2--4--x--2----|
E--0--x--2--0----|

Part 2 Chorus
E--0--0--0--0----|
B--0--4--0--0----|
G--1--4--2--2----|
D--4--2--2--1----|
A--2--4--x--2----|
E--0--x--2--0----|

Part 3
E--0--0--x-x-x----0--0--0--7---|
B--0--0--5-3-2----0--0--0--5---|
G--2--4--4-4-4----2--4--5--6---|
D--2--4--3-3-3----2--4--5--7---|
A--x--x--4-4-4----x--x--x--x---|
E--2--4--x-x-x----2--4--5--7---|

Part 4 Bridge
E--3--0--0--0--x--x--0--0--0--7--8--|
B--3--0--0--0--1--3--0--0--0--5--6--|
G--0--2--2--2--4--4--2--4--5--6--7--|
D--2--1--2--1--4--3--2--4--5--7--8--|
A--3--2--x--2--x--4--x--x--x--x--x--|
E--x--0--2--0--4--x--2--4--5--7--8--|

Part 5 Verse (after key change)
E--x--0--3--3h5------|
B--1--5--3--3--------|
G--2--5--3--3--------|
D--3--3--3--3--------|
A--x--5--5--3--------|
E--1--x--3--x--------|

Part 6
E--8--12---x--x-----|
B--8--10--10--x-----|
G--x--10--10--3-----|
D--7--10---8--2-----|
A--8---x--10--3-----|
E--0--10---x--x-----|

Intro x2

(1)I remember the first time
it's always playing in my mind
I've never felt like this before
nononono

(1)and every time that you kiss me
feels like I'm having a sweet dream
and i'mma never feel the way i do with anyone else

(3)my pulse is racing
when I see your face and
here is what you're doing to me

(1)when you
when you say
you love
love me
I can feel my heart
beat beat
race behind my chest

(1)every time is the first time
so I pretend it's the last time
that I'mma ever hear you say those words
three little words

(1)I wanna hold you forever
I promise that I ain't never
never ever gonna let you go
I want you to know

(3)my pulse is racing
when I see your face and
here is what you're doing to me

(2)when you
when you say
you love
love me
I can feel my heart
beat beat
race behind my chest

(4)if ever you question my feelings
place your hand on my heart, you'll feel it's beating for you
cuz he knows, he knew before I did
I'm not scared, I'm tired of hiding
I know that it's you because

(5)when you
when you say
you love
love me
I can feel my heart
beat beat
race behind my chest

Play part (6), then (5) and fade out
Suggest correction
comments
print report bad tab
guest
You may want to rate the tab now too:
select rating
Wanna post a correction for this tab? Suggest correction