Oops, an error
Loading. Please wait.

La Culpa Fue Del Cha, Cha, Cha Tab

139 views 6 this week
no commentswrite comment
1 2 3 4 5
3 more votes to show rating
add to favorites
launch autoscroll
font size
0
reset
how to read this tab
guitar tuner
Autoscroll
slow
fast
+/-
esc
set tempo
stop
Help us to improve Ultimate-Guitar.com Take our survey!
×
    1------------7-----7---7---5----------------------0------------
    2-----0------------------------8--7---5------0--------3---1--0-
    3--------------------------------------------------------------
    4--------------------------------------------------------------
    5--------------------------------------------------------------
    6--------------------------------------------------------------


    1--------------------------------------------------------0-----
    2-----3-----------0---1---------3---------0------1-------1-----
    3------------2------------------------2------------------2-----
    4--------------------------------------------------------------
    5--------------------------------------------------------------
    6--------------------------------------------------------------


    1--------------------------------------------------------------
    2----------------------------0---------------------------------
    3--2-----2---2-----0----2----------------------------0---------
    4--------------------------------2---2---4---2---4------------
    5--------------------------------------------------------------
    6--------------------------------------------------------------


    1--------------------------------------------5------5----5------
    2--------------------------------------------5----------------8-
    3-------------------------------0-----1------5------------------
    4---2----2----4---2------4--------------------------------------
    5---------------------------------------------------------------
    6--------------------------------------------------------------


    1----5---7---0-----0---2-----0---2----3---5----3---2--0------0--
    2--------------------------------------------------------4------
    3---------------------------------------------------------------
    4---------------------------------------------------------------
    5---------------------------------------------------------------
    6--------------------------------------------------------------


        jomecho@
Suggest correction
Give kudos to tab author, rate the tab!
1 2 3 4 5
comments
print report bad tab
guest
You may want to rate the tab now too:
select rating
Wanna post a correction for this tab? Suggest correction