Oops, an error
Loading. Please wait.

Me Tengo Que Concentrar Tab

37 views 1 this week
no commentswrite comment
1 2 3 4 5
3 more votes to show rating
add to favorites
launch autoscroll
font size
0
reset
how to read this tab
guitar tuner
×
Best way to learn
"Me Tengo Que Concentrar"
Autoscroll
slow
fast
+/-
esc
set tempo
stop
Este es el punteo de la canción. La parte 1 se repite a lo largo de ella
dos veces, mientras que la parte 2 se toca una sola vez antes del último estribillo.

PARTE 1:

1|--------------------------------------------------------|
2|--------------------------------------------------------|
3|---0-1-3--5-3-1--------------0-1-3--5-3-1---------------|
4|-3---------------1-2-1-2-1-----------------1-2-1-2-1----|
5|--------------------------------------------------------|
6|--------------------------------------------------------|


PARTE 2:

PARTE 1 +
1|-------------------------------------------------------------------|
2|-------------------------------------------------------------------|
3|-1-3--5-7-5-7-9-10-9-10-9-99-9991010109----0-1-3--5-3-1------------|
4|----------------------------------------3----------------1-2-1-2-1-|
5|-------------------------------------------------------------------|
6|-------------------------------------------------------------------|
Suggest correction
Give kudos to tab author, rate the tab!
1 2 3 4 5
comments
print report bad tab
guest
You may want to rate the tab now too:
select rating
Wanna post a correction for this tab? Suggest correction