Oops, an error
Loading. Please wait.

Solo Se Vive Una Vez Tab

84 views 1 this week
no commentswrite comment
1 2 3 4 5
3 more votes to show rating
add to favorites
×
Save as Personal and add changes to this tab that will be seen only by you. Learn more ›
×
You can save this tab as Personal to edit and correct it or add notes. All changes will be seen only by you. Learn more »
save as personal
new!
launch autoscroll
font size
0
reset
how to read this tab
guitar tuner
Autoscroll
slow
fast
+/-
esc
set tempo
stop
Por fin voy a hacer el riff de esta canción:

          (Riff)
  DO                   LAm      SOL
e-------------------------------------------
B-------------------------------------------
G------------------------------------------- X2
D--3-2-3-2----3-2-3-2---3-2-3-2-----0-0-----
A-3--------3-3---------0----------2-----3-2-
E-------------------------------3-----------

Pero la segunda vez,cuando tocas: D--3-2-3-2-
tienes que tocar a la vez: G--2-0-2-0 claro que esto es
opcional(Por no decir dificil).

 DO                                         LAm SOL

No quiero eternidad, sólo velocidad, el mas allá ya vendrá

 DO                                              LAm SOL

no me hago fotos ni guardo un papel de mí, mi cara es mi carnet

          FA           SOL        MI       LAm

tan solo dime que hora es,       dia semana y que mes

          FA           SOL        MI        LAm

tan solo dime que año es         para gritar con mas fe

 RE                 DO

SOLO SE VIVE UNA VEZ

  DO
e---------------------
B---------------------
G---------------------
D--3-2-3-2----3-2-3-2-
A-3--------3-3--------
E---------------------
DO                                              LAm     SOL

Me suscribi a private es un amor de ley por rapidez y comodidad

DO                                              LAm          SOL

por mi seguridad no cuides mi salud no soy un gandul solo un bonvivant

           FA           SOL        MI       LAm

tan solo dime que hora es,        dia semana y que mes

           FA     SOL        MI                LAm

tan solo dame un J.B.          para gritar con mas fe


 RE                 DO

SOLO SE VIVE UNA VEZ (riff)

 DO                    LAm      SOL(La segunda vez es un SOL7)
e-------------------------------------------
B-------------------------------------------
G------------------------------------------- X2
D--3-2-3-2----3-2-3-2---3-2-3-2-----0-0-----
A-3--------3-3---------0----------2-----3-2-
E-------------------------------3-----------
¡Sí!               una vez,     PERO RÁPIDO,

¡SÍ!               UNA VEZ


 RE                    DO

que si otra vez he de vivir

e-----------------------
B-----------------------
G-----------------------
D-----------------------
A---3-2-3-2-----3-2-3-2-
E-3---------3-3---------

 RE                 SOL

ya trataré de ser feliz

e-----------------------
B-----------------------
G-----------------------
D-----------------------
A---3-2-3-2-----3-2-3-2-
E-3---------3-3---------

        DO                               LAm   SOL

Asi que bésame o bien despídete solo una vez, pero rápido

        DO                                    LAm    SOL

que tengo prisa por si vivo la vez dos en realidad soy un cínico


         FA            SOL        MI         LAm

tan solo dime que hora es,        dia semana y que mes

         FA            SOL        MI          LAm

tan solo dame un  J.B.     para gritar con mas fe

 RE               DO

SOLO SE VIVE UNA VEZ, (Riff)

               LAm     SOL          DO

SÍ, SÍ, SÍ, UNA VEZ.


proximamente os enviare más temas de ello y otros grupos.
Suggest correction
Give kudos to tab author, rate the tab!
1 2 3 4 5
comments
print report bad tab
guest
Wanna post a correction for this tab? Suggest correction