Oops, an error
Loading. Please wait.

Underground Bass Tab

55 views 1 this week
no commentswrite comment
1 2 3 4 5
3 more votes to show rating
add to favorites
launch autoscroll
font size
0
reset
guitar tuner
×
Best way to learn
"Underground"
Autoscroll
slow
fast
+/-
esc
set tempo
stop
Gabinete Caligari
Underground
Tablatura para bajo (tb. tengo la partitura si interesa)
Transcripción de Sergio Martín
giosoftware@

Intro

G||--5--2--------||
D||--------5--2--||
A||--------------||
E||--------------||

Melodía

G||--------0--2--|--------2-----|-----0--4--0--|--------2-----|
D||-----2--------|--0--3-----3--|--2-----------|--0--3-----3--|
A||--3-----------|--------------|--------------|--------------|
E||--------------|--------------|--------------|--------------|

Estribillo

G||--------------|--------------|--------------|--------------|
D||--------------|--------------|--------------|--------------|
A||--3--0-----0--|--3--0-----0--|--3--0-----0--|--3-----0--2--|
E||--------3-----|--------3-----|--------3-----|-----3--------|

Melodía

G||--------0--2--|--------2-----|-----0--4--0--|--------2-----|
D||-----2--------|--0--3-----3--|--2-----------|--0--3-----3--|
A||--3-----------|--------------|--------------|--------------|
E||--------------|--------------|--------------|--------------|

Estribillo

G||--------------|--------------|--------------|--------------|
D||--------------|--------------|--------------|--------------|
A||--3--0-----0--|--3--0-----0--|--3--0-----0--|--3--0--------|
E||--------3-----|--------3-----|--------3-----|--------3--0--|


G||--------------|--------------|--------0--2--|--------------|
D||--------------|--------0-----|-----2--------|--------------|
A||-----0--3--0--|-----2-----2--|--3-----------|--3--2--0-----|
E||--1-----------|--3-----------|--------------|-----------3--|

G||--------------|--------------|--------------|--------------|
D||--------------|--------0-----|--------2-----|-----0--3--0--|
A||-----0--3--0--|-----2-----2--|--0--3-----3--|--2-----------|
E||--1-----------|--3-----------|--------------|--------------| x2

Al terminar volver a repetir otra vez desde la 1ª melodía y ya
lo teneis. Un buen temita de swing ideal para aprender digitación.
Espero que lo disfruteis!!
Suggest correction
Give kudos to tab author, rate the tab!
1 2 3 4 5
comments
print report bad tab
guest
You may want to rate the tab now too:
select rating
Wanna post a correction for this tab? Suggest correction