Oops, an error
Loading. Please wait.

Que Llegue La Noche Tab

version 1
version 1

Whole song

Interactive

61 views 1 this week
no commentswrite comment
1 2 3 4 5
3 more votes to show rating
add to favorites
launch autoscroll
font size
0
reset
how to read this tab
guitar tuner
×
Best way to learn
"Que Llegue La Noche"
Autoscroll
slow
fast
+/-
esc
set tempo
stop
Nota: Primero hago algunas aclaraciones de lo que tocan las dos guitarras
y más abajo pongo los acordes con la letra de la canción.


Intro + Verso 1

Guitarra 1:
  | ===================== Riff 1 ========================|
     *
E |-(10)------10-10-------10-|--7--------7--6------8-----| * La 1ra vez no se
B |--------8-----------8-----|--------8------------------|   toca el (10)
G |-----11----------9--------|-----9-----------7/9----9--|
D |--0-----------0-----------|--0-----------0------------|
A |--------------------------|---------------------------|
E |--------------------------|---------------------------|


 Repite y termina el primer verso así:


E |-(10)------10-10-------10-|--7------------------------|
B |--------8-----------8-----|---------------------------|
G |-----11----------9--------|---------------------------|
D |--0-----------0-----------|--0------------------------|
A |--------------------------|---------------------------|
E |--------------------------|---------------------------|
            ya no quiero ver    más.


Instrumental + Verso 2. Entra la Guitarra 2 (y el piano)

Guitarra 1:

E |-----------10-10-------10-|--7--------7--6------8-----|
B |--------8-----------8-----|--------8------------------|
G |-----11----------9--------|-----9-----------7s9----9--|
D |--0-----------0-----------|--0-----------0------------|
A |--------------------------|---------------------------|
E |--------------------------|---------------------------|

Guitarra 2:

E |--3p2------0-------3p0----|--------0------------------|
B |-----3----(3)-3-------3---|--3--------3--3-----3------|
G |--------2--------0--------|-----0-----------0-----0---|
D |--0-----------------------|---------------------------|
A |--------------3-----------|--2-----------1-----3------|
E |--------------------------|---------------------------|


Repiten hasta:

Guitarra 1:

E |-(10)------10-10-------10-|--7--------7--6--------6---|--8--------8--|
B |--------8-----------8-----|--------8-----------6------|--------8-----|
G |-----11----------9--------|-----9-----------7---------|-----9--------|
D |--0-----------0-----------|--0-----------0------------|--0-----------|
A |--------------------------|---------------------------|--------------|
E |--------------------------|---------------------------|--------------|
Guitarra 2:

E |--3p2------0-------3p0----|--------0-----------0------|-------3------|
B |-----3----(3)-3-------3---|--3--------3--3--------3---|--3-------3---|
G |--------2--------0--------|-----0-----------0---------|-----0--------|
D |--0-----------------------|---------------------------|--------------|
A |--------------3-----------|--2-----------1------------|--3-----------|
E |--------------------------|---------------------------|--------------|
             sólo quiero   escuchar,       oler,           tocar  y  gus -


Guitarra 1:
  |=================================  Riff 2 ============================|
   (rápido)
E |------10----10---------8-----8-----|-----7-----7------6-6-----8-8-----|
B |---10-----10--10-----8-----8---8---|---8-----8---8----6---6---8---8---|
G |-11-----11------11-9-----9-------9-|-7-----7-------7--7-----7-9-----9-|
D |-----------------------------------|----------------------------------|
A |-----------------------------------|----------------------------------|
E |-----------------------------------|----------------------------------|

Guitarra 2:
   (igual que antes)
E |--3p2------0-------3p0----          |--------0------------------
B |-----3----(3)-3-------3---          |--3--------3--3-----3------
G |--------2--------0--------          |-----0-----------0-----0---
D |--0-----------------------          |---------------------------
A |--------------3-----------          |--2-----------1-----3------
E |--------------------------          |---------------------------
    taaar...


Entre paréntesis indico lo que toca la Guitarra 1.

Acordes Guitarra 2:

D:      xx0232
Csus2:  x3x03x
G/B:    x2x03x
Bb6:    x1x03x
F:      133211
Bb:     x13331
C:      x32010


(Riff 1)

Que llegue la noche
que ninguna luz pueda iluminar
Que llegue la noche;
Ya no quiero ver más


D - Csus2 - G/B - Bb6-Csus2  x2


D     Csus2     G/B   Bb6 Csus2
 Que llegue la noche
D     Csus2     G/B      Bb6     Csus2
 Extingamos estrellas tirando al cielo el mar
D     Csus2     G/B   Bb6 Csus2
 Que llegue la noche                   (Riff 2)
D     Csus2      G/B   Bb6   Csus2      D     Csus2     G/B   Bb6 Csus2
 Sólo quiero escuchar, oler, tocar y gustar


F                   Bb                 F
 Que no se haga una luz ni se haga el sueño
               Bb            F                         Bb
 Quiero reconocerme en el silencio que hay entre cada pulso
                  C
 Entre aliento y aliento

(Riff 2)
D - Csus2 - G/B - Bb6-Csus2  x2


D     Csus2     G/B   Bb6 Csus2
 Que llegue la noche
D     Csus2     G/B        Bb6  Csus2
 No enciendas el fuego que vas a espantar
D     Csus2     G/B      Bb6 Csus2
 Las cosas de la noche
D     Csus2     G/B      Bb6 Csus2
 que nos hermanan más

D   Csus2   G/B      Bb6 Csus2
 Traeme la noche
D     Csus2   G/B        Bb6 Csus2 (D)
  Ni   la   penumbra, ni la  oscuridad
D   Csus2    G/B      Bb6 Csus2
 ¡Traeme la noche!
D     Csus2     G/B  (silencio)
   Apagame el   SOL.

               (Riff 1)
 No quiero ver más.

 No quiero ver más.
        D    Csus2   G/B
 No quiero ver más.
    Bb6 Csus2    D     Csus2     G/B   Bb6  (silencio)
 No quiero ver más.


(Riff 2 - Guitarra 1 rasguea los acordes)
D - Csus2 - G/B - Bb6-Csus2  x4
Suggest correction
Give kudos to tab author, rate the tab!
1 2 3 4 5
comments
print report bad tab
guest
You may want to rate the tab now too:
select rating
Wanna post a correction for this tab? Suggest correction