Oops, an error
Loading. Please wait.

Vuelve Chords

49 views 3 this week
no commentswrite comment
1 2 3 4 5
3 more votes to show rating
add to favorites
×
Save as Personal and add changes to this tab that will be seen only by you. Learn more ›
×
You can save this tab as Personal to edit and correct it or add notes. All changes will be seen only by you. Learn more »
save as personal
new!
launch autoscroll
font size
0
reset
transpose
0
reset
display chords
guitar tuner
Autoscroll
slow
fast
+/-
esc
set tempo
stop
Strumming
There is no strumming pattern for this song yet. and get +5 IQ
Buenas chicos que tal? esta en mi primera canción. en esta
pagina y esta 100% original, sigo a esta pagina
desde sus comienzosen Atame y ahora la cuerda.
Le debo mucho a la misma espero les salga tal cual
 como me salio a mi.

 RECOMIENDO REALIZAR TODAS
LAS NOTAS CON CEJILLA, CUALQUIER DUDA O CONSULTA
 NO DUDEN EN AGREGARME. SALUTES

   GABRIEL MORALES - VUELVE   

     PUNTEO INICIAL: (E- C#m-A-B X2)

E\--------------------------------------------
B\---4/5------5-4-5-4-5--7--5-----------------
G\--------4--------------------4/6------------
D\--------------------------------------------
A\--------------------------------------------
E\--------------------------------------------

E\------------------------------------5-7-7---
B\-5-4-5-4-5--7--5--4------------5--7---------
G\---------------------4/6----6---------------
D\--------------------------------------------
A\--------------------------------------------
E\--------------------------------------------

E\----------------5----9----------------------
B\--------5---7-------------------------------
G\-----6--------------------------------------
D\--------------------------------------------
A\--------------------------------------------
E\--------------------------------------------


         E    C#m             A
Estoy aquí, mirando el cielo
                     B
también lo veo llorar
         E        C#m             A
cierro los ojos, siento el viento
                     B
el sonido de tu voz

  C#m                        G#m
en la distancia te acaricio
C#m                      G#m
te quisiera abrazar
   A                             B
siento el frio de tu olvido
   A                             B
siento en mi la soledad

  E                                 C#m
vuelveÂ? mi boca muere por tus besos
                          A
mi corazón por un te quiero
                      B
por un te amo de tu voz
E                                C#m
VuelveÂ? sin ti mi vida ya no es vida
                             A
quisiera hallar esa salida
                           B
la que me aleje del dolor
  A                          B              E
vuelveÂ? devuélveme el amorÂ?


      PUNTEO: (E- C#m-A-B X2)

  C#m                      G#m
en la distancia te acaricio
C#m                    G#m
te quisiera abrazar
   A                             B
siento el frio de tu olvido
   A                             B
siento en mi la soledad
E                              C#m
vuelveÂ? mi boca muere por tus besos
                         A
mi corazón por un te quiero
                        B
por un te amo de tu voz
E                                  C#m
VuelveÂ? sin ti mi vida ya no es vida
                           A
quisiera hallar esa salida
                               B
la que me aleje del dolor
  A                 B                   E
vuelveÂ? devuélveme el amorÂ?


    PUNTEO: (E- C#m-A-B X2)


E             C#m      A           B        E
vuelve--- vuelve.. amor.. amorÂ? amooorrÂ?

   NOVEDADES EN TRASCRIPCIONES EN Facebook :
           monty962@
Suggest correction
Give kudos to tab author, rate the tab!
1 2 3 4 5
comments
print report bad tab
guest
Wanna post a correction for this tab? Suggest correction