Oops, an error
Loading. Please wait.

Unfeeling Kiss Tab

7,899 views 3 this week
1 commentread comment
1 2 3 4 5
excellent!
x 2
add to favorites
launch autoscroll
font size
0
reset
how to read this tab
guitar tuner
Tab Pro tools
  • play this tab
  • loop segment
  • change instrument
  • show fretboard
  • metronome
Autoscroll
slow
fast
+/-
esc
set tempo
stop
Artist: Gabriel Yared
Title:  Unfeeling Kiss

Trascribed by Ben Walden
If you have any comments or suggestions, please email
Me at kenober80@hotmail.com

Tab Explanation
******************************************
*   h  hammer on        ~~~ let ring     *
*   p  pull off         <#> hyperbolic   *
*   /  slide up         (#) optional     *
*   \  slide down                        *
******************************************

I tabbed this song for two guitars.  I put the complete lead guitar
tabs first and I put the backup guitar tabs last.  This song should
be played with two classical guitars.  Enjoy!

***********************************************************************
Guitar 1 [Come in on Guitar 2 5th Sequence]

Repeat 2X
E----------------------------------------------|
B----------12------------9---------------------|
G------9----------------------------------11~~~|
D?9/11--------------11---------------9h11------|
A?-------12---11/12----9--------9h12-----------|
E--------------------------12------------------|


E---------------------------------------------------------------------|
B---------------9-10~~~--10-10----------------------10-10-------------|
G-9----------9-----------------12-11------11--------------12-11-------|
D---11~~~-11-------------------------9h12----11~~~--------------9h12--|
A---------------------------------------------------------------------|
E---------------------------------------------------------------------|


E---------------------------------------------------------------------|
B-----------------------------------------------------------------9---|
G--11-9---------------9----9-----------------9----9---9-----9---9-----|
D-------12~~~------12---12---12-12-12~~~--12---12-------9h11-11-------|
A---------------------------------------------------------------------|
E---------------------------------------------------------------------|


E--------------------------------------------------------------0------|
B-10~~~--10-10------------------------10-10---------------------------|
G--------------12-11------11----------------12-11-----------11---11-11|
D--------------------9h12----9h11~~~------------(9)-12~~~-------------|
A---------------------------------------------------------11----------|
E---------------------------------------------------------------------|


E---------------------------------------------------------------------|
B----------------3~~~--------------------------------------------10/12|
G-8---8-8-11-8\--2~~~-----9----9----9----------------9----9-----------|
D----------------3~~~--12---12---12---12-12-12~~~-12---12---12-12-----|
A----------------2~~~-------------------------------------------------|
E----------------0~~~-------------------------------------------------|


E---------------------------------------------------|
B-10\-----------------------------------------------|
G--------9----9----9--------------------------------|
D-----12---12---12---12-12-12~~~-12-11-9---------9--|
A---------------------------------------12-9---12---|
E-------------------------------------------12------|

Repeat 2X
E-------------------------------------------------------|
B----------12------------9------------------------------|
G------9----------------------------------11~~~~~~------|
D?9/11--------------11---------------9h11----(9/11\9)---|
A?-------12---11/12----9--------9h12--------------------|
E--------------------------12---------------------------|


E---------------------------------------------------------------------|
B---------------9-10~~~--10-10----------------------10-10-------------|
G-9-9---------9----------------12-11------11--------------12-11-------|
D----9h11~~-11-----------------------9h12----9h11~~~------------9h12--|
A---------------------------------------------------------------------|
E---------------------------------------------------------------------|

E---------------|
B---------------|
G(11)----11~~~--|
D------12-------|
A----12---------|
E---------------|


***********************************************************************
Guitar 2

Repeat 10X
E----7p0----7p0---0-----|
B------5------5---5-----|
G-----------------------|
D--7------7-----7---7---|
A--0------0-----0---0---|
E-----------------------|

Repeat 4X              Repeat 2X             Repeat 2X
E----------0------|   |--------0~~~-----|   |--------0~~~-----|
B----0-------0----|   |----0--------0---|   |----0--------0---|
G------6-------6--|   |------6--------6-|   |------6--------6-|
D--------7--------|   |--7--------------|   |--5--------------|
A--0--------------|   |--0--------------|   |-----------------|
E-----------------|   |-----------------|   |--0--------------|

Repeat 2X             Repeat 2X
E--------0~~~-----|   |--------0~~~-----|
B----0--------0---|   |----0--------0---|
G------6--------6-|   |------6--------6-|
D--7--------------|   |--5--------------|
A--0--------------|   |-----------------|
E-----------------|   |--0--------------|


E---------0---------0---------0------------0--------------------------|
B---0---------2---------3-------3-----3------3------------------------|
G-----4---------4---------2-------2-----2------2---1---3-3---1~~~-----|
D-6-----6---4-----4---3-----3-------2-----3--------2---2-2---2~~~-----|
A--------------------------------------------------2---3-3---2~~~-----|
E-0---------2--------------------------------------0---0-0---0~~~-----|

Repeat 4X              Repeat 2X             Repeat 2X
E----------0------|   |--------0~~~-----|   |--------0~~~-----|
B----0-------0----|   |----0--------0---|   |----0--------0---|
G------6-------6--|   |------6--------6-|   |------6--------6-|
D--------7--------|   |--7--------------|   |--5--------------|
A--0--------------|   |--0--------------|   |-----------------|
E-----------------|   |-----------------|   |--0--------------|

Repeat 2X
E--------0~~~-----|   |---------0---------0------------------|
B----0--------0---|   |---0---------2-------------3~~~-------|
G------6--------6-|   |-----4---------4-----------2~~~---<5>-|
D--7--------------|   |-6-----6---4-----4---6\2---3~~~-------|
A--0--------------|   |---------------------------2~~~-------|
E-----------------|   |-0---------2---------------0~~~-------|

                                       Repeat 2X
E---------------------------------|   |------------------------------|
B---------------------------------|   |------------------------------|
G-1~~-2-2~~-1~~-2~~-1~~-2-2~~-1~~-|   |------------------------------|
D-2~~-3-3~~-2~~-3~~-2~~-3-3~~-2~~-|   |-9---7---6---------------7~~~-|
A?2~~-2-2~~-2~~-2~~-2~~-2-2~~-2~~-|   |-------------9---7---7h9------|
E-0~~-0-0~~-0~~-0~~-0~~-0-0~~-0~~-|   |------------------------------|

Repeat 4X              Repeat 2X
E--------0~~~-----|   |--------0~~~-----|
B----0--------0---|   |----0--------0---|
G------6--------6-|   |------6--------6-|
D--7--------------|   |--5--------------|
A--0--------------|   |-----------------|
E-----------------|   |--0--------------|

Repeat 2X              Repeat 2X
E--------0~~~-----|   |--------0~~~-----|
B----0--------0---|   |----0--------0---|
G------6--------6-|   |------6--------6-|
D--7--------------|   |--5--------------|
A--0--------------|   |-----------------|
E-----------------|   |--0--------------|
comments
We did not receive enough feedback on this tab! Please rate:
print report bad tab
1 2 3 4 5
1 comment total.
0 reply
Bobosha wrote on August 8 2013, 09:52 pm

Beautiful piece, seems perfect! I love this song

I want to post or [tab]
guest
You may want to rate the tab now too:
select rating
Please do not post tabs as comments. Select "correction" instead!