Oops, an error
Loading. Please wait.

Sweet About Me Acoustic Tab

2,534 views 1 this week
no commentswrite comment
1 2 3 4 5
please rate
add to favorites
launch autoscroll
font size
0
reset
how to read this tab
guitar tuner
Tab Pro tools
  • play this tab
  • loop segment
  • change instrument
  • show fretboard
  • metronome
Autoscroll
slow
fast
+/-
esc
set tempo
stop
Contributor
Difficulty
novice
Artist: Gabriella Cilmi
  song: Sweet About Me

This is the acoustic version.

Play along with them at http://www.youtube.com/watch?v=zVQTfbqqgdg

Guitar 1: Standard tuning, no capo
Guitar 2: Standard tuning, capo on 4th fret

Chords used:

        Guitar 1                   Guitar 2

         EADGBe                     EADGBe
C#sus2  (446644)            Asus2  (002200)
 Emaj7  (476444)            Cmaj7  (032000)
     B  (x2444x)               G6  (320000)
 Esus2  (779977)
 Bsus2  (224422)

d = downwards strum
u = upwards strum

                               Guitar 1

riff

   C#sus2            Emaj7             B                 C#sus2
e|-----------------|-----------------|-----------------|-----------------|
B|-------4---------|-------4---------|-------4---------|-------4---------|
G|-----------6-----|-----------4-----|-----------4-----|-----------6-----|
D|-----6-------6---|-----6-------6---|-----4-------4---|-----6-------6---|
A|-4---------------|-7---------------|-2---------------|-4---------------|
E|-----------------|-----------------|-----------------|-----------------|


Pattern 1

   C#sus2            Esus2             Bsus2             C#sus2
e|-4---4-4---4-4---|-7---7-7---7-7---|-2---2-2---2-2---|-4---4-4---4-4---|
B|-4---4-4---4-4---|-7---7-7---7-7---|-2---2-2---2-2---|-4---4-4---4-4---|
G|-6---6-6---6-6---|-9---9-9---9-9---|-4---4-4---4-4---|-6---6-6---6-6---|
D|-6---6-6---6-6---|-9---9-9---9-9---|-4---4-4---4-4---|-6---6-6---6-6---|
A|-4---4-4---4-4---|-7---7-7---7-7---|-2---2-2---2-2---|-4---4-4---4-4---|
E|-4---4-4---4-4---|-7---7-7---7-7---|-2---2-2---2-2---|-4---4-4---4-4---|

   d   d u   u d     d   d u   u d     d   d u   u d     d   d u   u d


Pattern 2

   C#sus2            Emaj7             Bsus2             C#sus2
e|-4---4-4---4-4---|-4---4-4---4-4---|-2---2-2---2-2---|-4---4-4---4-4---|
B|-4---4-4---4-4---|-4---4-4---4-4---|-2---2-2---2-2---|-4---4-4---4-4---|
G|-6---6-6---6-6---|-4---4-4---4-4---|-4---4-4---4-4---|-6---6-6---6-6---|
D|-6---6-6---6-6---|-6---6-6---6-6---|-4---4-4---4-4---|-6---6-6---6-6---|
A|-4---4-4---4-4---|-7---7-7---7-7---|-2---2-2---2-2---|-4---4-4---4-4---|
E|-4---4-4---4-4---|-4---4-4---4-4---|-2---2-2---2-2---|-4---4-4---4-4---|

   d   d u   u d     d   d u   u d     d   d u   u d     d   d u   u d


       (riff)
       (pattern 1) X 4
       (pattern 2) X 4
       (pattern 1) X 4
       (riff)
       (pattern 1) X 4
       (pattern 2) X 4
       (pattern 1) X 4


                               Guitar 2 (capo on fret 4)


Pattern 1

e|-x---x-x---x-x---|-x---x-x---x-x---|-x---x-x---x-x---|-x---x-x---x-x---|
B|-x---x-x---x-x---|-x---x-x---x-x---|-x---x-x---x-x---|-x---x-x---x-x---|
G|-x---x-x---x-x---|-x---x-x---x-x---|-x---x-x---x-x---|-x---x-x---x-x---|
D|-x---x-x---x-x---|-x---x-x---x-x---|-x---x-x---x-x---|-x---x-x---x-x---|
A|-x---x-x---x-x---|-x---x-x---x-x---|-x---x-x---x-x---|-x---x-x---x-x---|
E|-x---x-x---x-x---|-x---x-x---x-x---|-x---x-x---x-x---|-x---x-x---x-x---|

   d   d u   u d     d   d u   u d     d   d u   u d     d   d u   u d

Pattern 2

   Asus2             Cmaj7             G6                Asus2
e|-0---0-0---0-0---|-0---0-0---0-0---|-0---0-0---0-0---|-0---0-0---0-0---|
B|-0---0-0---0-0---|-0---0-0---0-0---|-0---0-0---0-0---|-0---0-0---0-0---|
G|-2---2-2---2-2---|-0---0-0---0-0---|-0---0-0---0-0---|-2---2-2---2-2---|
D|-2---2-2---2-2---|-2---2-2---2-2---|-0---0-0---0-0---|-2---2-2---2-2---|
A|-0---0-0---0-0---|-3---3-3---3-3---|-2---2-2---2-2---|-0---0-0---0-0---|
E|-0---0-0---0-0---|-0---0-0---0-0---|-3---3-3---3-3---|-0---0-0---0-0---|

   d   d u   u d     d   d u   u d     d   d u   u d     d   d u   u d

riff

   Asus2             Cmaj7             G6                Asus2
e|-----------------|-----------------|-----------------|-----------------|
B|-------0---------|-------0---------|-------0---------|-------0---------|
G|-----------2-----|-----------0-----|-----------0-----|-----------2-----|
D|-----2-------2---|-----2-------2---|-----0-------0---|-----2-------2---|
A|-0---------------|-3---------------|-----------------|-0---------------|
E|-----------------|-----------------|-3---------------|-----------------|


comments
We did not receive enough feedback on this tab! Please rate:
print report bad tab
1 2 3 4 5
I want to post or [tab]
guest
You may want to rate the tab now too:
select rating
Please do not post tabs as comments. Select "correction" instead!