Oops, an error
Loading. Please wait.

I Dont Feel So Alive tab

707 views 3 this week
2 commentsread comments
1 2 3 4 5
x 3
add to favorites
×
Save as Personal and add changes to this tab that will be seen only by you. Learn more ›
×
You can save this tab as Personal to edit and correct it or add notes. All changes will be seen only by you. Learn more »
launch autoscroll
font size
0
reset
how to read this tab
guitar tuner
edit
Autoscroll
slow
fast
+/-
esc
set tempo
stop
"I DON'T FEEL SO ALIVE"
by Gabriella Cohen

tabbed by:    DropDeee
tuning:       (E A D Gb A D)
effects:      Clean
video:        https://www.youtube.com/watch?v=k1G4cPmyp7I


         ***   Tuning is unusual. E, A & D strings are standard tuning, G string
               is tuned a half-step down while B & e strings are a full-step down   ***

                 Also, all 'X' notes are mild slaps, as you can hear in the song.


[Intro]

D |-----------------------------------------------------------------------------------------|
A |-----------------------------------------------------------------------------------------|
Gb|---5----x--5--5----x----5----x--5--5/7--5\3--3--0----x--0--0----X----0----X--0--0----X---|
D |---5----x--5--5----x----5----x--5--5/7--5\3--3--0----x--0--0----X----0----X--0--0----X---| x 2
A |-----------------------------------------------------------------------------------------|
E |-----------------------------------------------------------------------------------------|


 [Verse]

D |-----------------------------------------------------------------------------------------|
A |-----------------------------------------------------------------------------------------|
Gb|---5----x--5--5----x----5----x--5--5/7--5\3--3--0----x--0--0----X----0----X--0--0----X---|
D |---5----x--5--5----x----5----x--5--5/7--5\3--3--0----x--0--0----X----0----X--0--0----X---|
A |-----------------------------------------------------------------------------------------|
E |-----------------------------------------------------------------------------------------|
  "Well I...                      don't feel so  a-live..."

D |-----------------------------------------------------------------------------------------|
A |-----------------------------------------------------------------------------------------|
Gb|---5----x--5--5----x----5----x--5--5/7--5\3--3--0----x--0--0----X----0----X--0--0----X---|
D |---5----x--5--5----x----5----x--5--5/7--5\3--3--0----x--0--0----X----0----X--0--0----X---|
A |-----------------------------------------------------------------------------------------|
E |-----------------------------------------------------------------------------------------|
  "I might...                        break down and cry"             *sigh*

D |-----------------------------------------------------------------------------------------|
A |-----------------------------------------------------------------------------------------|
Gb|---5----x--5--5----x----5----x--5--5/7--5\3--3--0----x--0--0----X----0----X--0--0----X---|
D |---5----x--5--5----x----5----x--5--5/7--5\3--3--0----x--0--0----X----0----X--0--0----X---|
A |-----------------------------------------------------------------------------------------|
E |-----------------------------------------------------------------------------------------|
  "I read...                        a book on my life..."                            "and..

D |-----------------------------------------------------------------------------------------|
A |-----------------------------------------------------------------------------------------|
Gb|---5----x--5--5----x----5----x--5--5/7--5\3--3--0----x--0--0----3~~--0----X--0--0----X---|
D |---5----x--5--5----x----5----x--5--5/7--5\3--3--0----x--0--0----3~~--0----X--0--0----X---|
A |-----------------------------------------------------------------------------------------|
E |-----------------------------------------------------------------------------------------|
  "it said...                 that I don't have to try"               *sigh*     "ahhhhhh..


 [Chorus]

D |--------------------------------------------------------------------------------------------|
A |---7------X----9---7--X----5----X--8---5----X-----------------------------------------------|
Gb|---7------X----7---7--X----5----X--5---5----X------0----X---0--0----5~~-0----X--0--0----X---|
D |---7------X----7---7--X----5----X--5---5----X------0----X---0--0----5~~-0----X--0--0----X---|
A |--------------------------------------------------------------------------------------------|
E |--------------------------------------------------------------------------------------------|
  "..do you get high on a Saturday night and think of me-ee"                         "Ohhhhhh..

D |---------------------------------------------------------------------------------------------|
A |---7------X----9----7--X----5----X--8---5----X-----------------------------------------------|
Gb|---7------X----7----7--X----5----X--5---5----X------0----X---0--0----5~~-0----X--0--0----X---|
D |---7------X----7----7--X----5----X--5---5----X------0----X---0--0----5~~-0----X--0--0----X---|
A |---------------------------------------------------------------------------------------------|
E |---------------------------------------------------------------------------------------------|
   ..do you ever think about twooo   years         ago?"

 
[Verse]

D |-----------------------------------------------------------------------------------------|
A |------------------------5-------5-------5------------------------------------------------|
Gb|---5----x--5--5----x----5----x--5--5/7--5\3--3--0----x--0--0----5----0----X--0--0----X---|
D |---5----x--5--5----x----5----x--5--5/7--5\3--3--0----x--0--0----5----0----X--0--0----X---|
A |-----------------------------------------------------------------------------------------|
E |-----------------------------------------------------------------------------------------|
 "Well I...                you know I can't tell a lie...              No"

D |-----------------------------------------------------------------------------------------|
A |-----------5--5--------------------------------------------------------------------------|
Gb|---5----x--5--5----x----5----x--5--5/7--5\1--3--0----x--0--0----X----0----X--0--0----X---|
D |---5----x--5--5----x----5----x--5--5/7--5\1--3--0----x--0--0----X----0----X--0--0----X---|
A |-----------------------------------------------------------------------------------------|
E |-----------------------------------------------------------------------------------------|
 "Well I...                          can't tell a lie...               No"           "They..

D |-----------------------------------------------------------------------------------------|
A |--------------5--------------------------------------------------------------------------|
Gb|---5----x--5--5----x----5----x--5--5/7--5\3--3--0----x--0--0----5~~-0-----X--0--0----X---|
D |---5----x--5--5----x----5----x--5--5/7--5\3--3--0----x--0--0----5~~-0-----X--0--0----X---|
A |-----------------------------------------------------------------------------------------|
E |-----------------------------------------------------------------------------------------|
  ..said                       to everybo---dy to cry...                     *sigh* "When they


D |---------------------------------------------------------------------------------------------|
A |-------------5---5---------------------------------------------------------------------------|
Gb|---5-----x---5---5-----x----5----x--5--5/7--5\3--3--0----x--0--0----X----0----X--0--0----X---|
D |---5-----x---5---5-----x----5----x--5--5/7--5\3--3--0----x--0--0----X----0----X--0--0----X---|
A |---------------------------------------------------------------------------------------------|
E |---------------------------------------------------------------------------------------------|
     sit on their chairs and they got an approach, there doesn't really take into consideration
     of other people but...

D |------------------------------------------------------------------------------------------|
A |------------------------5-------5--------5------------------------------------------------|
Gb|---5----x--5--5----x----5----x--5--5/7---5\3--3--0----x--0--0----5~~--0----X--0--0----X---|
D |---5----x--5--5----x----5----x--5--5/7---5\3--3--0----x--0--0----5~~--0----X--0--0----X---|
A |------------------------------------------------------------------------------------------|
E |------------------------------------------------------------------------------------------|
   did you find out, what I'm all about or should I tell ya?"                  "Yeah I'm gonna


D |-----------------------------------------------------------------------------------------|
A |--------------5--------------------------------------------------------------------------|
Gb|---5----x--5--5----x----5----x--5--5/7--5\3--3--0----x--0--0----X----0----X--0--0----X---|
D |---5----x--5--5----x----5----x--5--5/7--5\3--3--0----x--0--0----X----0----X--0--0----X---|
A |-----------------------------------------------------------------------------------------|
E |-----------------------------------------------------------------------------------------|
    tell ya."      *Hoo-oooh*   "Well I'm gonna  tell ya."         "Yeah, yeah, yeah, yeah"

 
[Chorus]


D |---------------------------------------------------------------------------------------------|
A |-----7------X----9----7--X----5------X----8---5--X-------------------------------------------|
Gb|-----7------X----7----7--X----5------X----5---5--X----0----X--0--0----5~~-0----X--0--0----X--|
D |-----7------X----7----7--X----5------X----5---5--X----0----X--0--0----5~~-0----X--0--0----X--|
A |---------------------------------------------------------------------------------------------|
E |---------------------------------------------------------------------------------------------|
 "Well this could be the last  time that we get to  -  gether.                           "Well..

D |-----------------------------------------------------------------------|
A |-----7------X----9----7--X----5------X----8---5--X----5----------------|
Gb|-----7------X----7----7--X----5------X----5---5--X----5----X--0----X---|
D |-----7------X----7----7--X----5------X----5---5--X----5----X--0----X---|
A |-----------------------------------------------------------------------|
E |-----------------------------------------------------------------------|
     this could be the last  time  that we   get to  -  gether"   **It's now or never**

 
[Break]

D |-------------------------|------------------------|-------------------------|
A |-------------------------|---5---X--0----X--------|---5----X--0----X--------|
Gb|---5----X--0----X--------|---5---X--0----X--------|---5----X--0----X--------|
D |---5----X--0----X--------|---5---X--0----X--------|---5----X--0----X--------|
A |-------------------------|------------------------|-------------------------|
E |-------------------------|------------------------|-------------------------|
                  ...get together...            ...get together..     *la la la la

D |-------------------------|-------------------------0-0--|
A |-------------------------|---5---X--0----X---------0-0--|
Gb|---5----X--0----X--------|---5---X--0----X---------0-0--|
D |---5----X--0----X--------|---5---X--0----X-----0-0-0-0--|
A |-------------------0--0--|------------------0--0-0-0-0--|
E |-------------------------|------------------------------|
    *ooh...  ooh...     ...get together...   ..get together...


D |--5-5-5-5-5-5-5-5--0-0-0-0-0-0-0-0--|--5-5-5-5-5-5-5-5--0-0-0-0-0-0-0-0--|
A |--5-5-5-5-5-5-5-5--0-0-0-0-0-0-0-0--|--5-5-5-5-5-5-5-5--0-0-0-0-0-0-0-0--|
Gb|--5-5-5-5-5-5-5-5--0-0-0-0-0-0-0-0--|--5-5-5-5-5-5-5-5--0-0-0-0-0-0-0-0--|
D |--5-5-5-5-5-5-5-5--0-0-0-0-0-0-0-0--|--5-5-5-5-5-5-5-5--0-0-0-0-0-0-0-0--|
A |--5-5-5-5-5-5-5-5--0-0-0-0-0-0-0-0--|--5-5-5-5-5-5-5-5--0-0-0-0-0-0-0-0--|
E |------------------------------------|------------------------------------|
      ...get together...   yeah, yeah.  "Why don't we get together, yeah yeah"

D |--5-5-5-5-5-5-5-5--0-0-0-0-0-0-0-0--|--5-5-5-5-5-5-5-5--0-0-0-0-0-0-0-0--|
A |--5-5-5-5-5-5-5-5--0-0-0-0-0-0-0-0--|--5-5-5-5-5-5-5-5--0-0-0-0-0-0-0-0--|
Gb|--5-5-5-5-5-5-5-5--0-0-0-0-0-0-0-0--|--5-5-5-5-5-5-5-5--0-0-0-0-0-0-0-0--|
D |--5-5-5-5-5-5-5-5--0-0-0-0-0-0-0-0--|--5-5-5-5-5-5-5-5--0-0-0-0-0-0-0-0--|
A |--5-5-5-5-5-5-5-5--0-0-0-0-0-0-0-0--|--5-5-5-5-5-5-5-5--0-0-0-0-0-0-0-0--|
E |------------------------------------|------------------------------------|
 "Why don't we get together, yeah yeah" "Why don't we get together, yeah yeah"


D |--5-5-5-5-5-5-5-5--0-0-0-0-0-0-0-0--|--5-5-5-5-5-5-5-5--0-0-0-0-0-0-0-0--|
A |--5-5-5-5-5-5-5-5--0-0-0-0-0-0-0-0--|--5-5-5-5-5-5-5-5--0-0-0-0-0-0-0-0--|
Gb|--5-5-5-5-5-5-5-5--0-0-0-0-0-0-0-0--|--5-5-5-5-5-5-5-5--0-0-0-0-0-0-0-0--|
D |--5-5-5-5-5-5-5-5--0-0-0-0-0-0-0-0--|--5-5-5-5-5-5-5-5--0-0-0-0-0-0-0-0--|
A |--5-5-5-5-5-5-5-5--0-0-0-0-0-0-0-0--|--5-5-5-5-5-5-5-5--0-0-0-0-0-0-0-0--|
E |------------------------------------|------------------------------------|
 "Why don't we get together, yeah yeah" "Why don't we get together, yeah yeah"


D |----5-5-5-5-5-5-5-5---------------------------|--------------------------|-5---X--4-----------------|
A |----5-5-5-5-5-5-5-5-----------------------0---|----------------------0---|-5---X--0------------0----|
Gb|----5-5-5-5-5-5-5-5---5---X--0---X----------0-|--5---X--0---X----------0-|-5---X--0---X----------0--|
D |----5-5-5-5-5-5-5-5---5---X--0---X--0--0------|--5---X--0---X--0--0------|-5---X--0---X--0--0-------|
A |----5-5-5-5-5-5-5-5-----------------0--0------|----------------0--0------|---------------0--0-------|
E |----------------------------------------------|--------------------------|--------------------------|
 "Why don't you tell it to me?"


[Outro]

D |----------------------------------------|
A |----------------------------------------|
Gb|---5----X--5--5/7--5--3--1------0--(N)--| Tremelo the
D |---5----X--5--5/7--5--0--0--------------| last note
A |----------------------------------------|
E |----------------------------------------|


************************************

| x   Dead note
| /   Slide up
| \   Slide down
| ~   Vibratol
| N   Tremolo

************************************

            
            
Suggest correction
Creating personal tab
Creating personal tab
You can edit any tab online and save it as your Personal.

You can edit, replace or remove any tab part or add personal notes – all changes will be seen only by you.

Personal tabs can be accessed anytime from any device, even offline.
Learn more »
Give kudos to tab author, rate the tab!
1 2 3 4 5
comments
print report bad tab
2 comments total.
0 reply
m.armstrong 20 Mar 25, 2017 09:39 PM

You can get away with it in standard EADGBe tuning if you subtract 1 from Gb string notes and 2 from the high A string. Super good tab!

+1 reply
DropDeee 4,141 Mar 26, 2017 02:30 AM

Hey, thanks for checking it out! I watched a video of Gabriella playing this and took note of what strings/frets she was playing and just tuned it from that. I'll give you suggestion a try and see how it sounds :)

guest
You may want to rate the tab now too:
select rating
Wanna post a correction for this tab? Suggest correction