Oops, an error
Loading. Please wait.

Nothing Else Matters tab

2,383 views 60 this week
no commentswrite comment
1 2 3 4 5
x 5
add to favorites
×
Save as Personal and add changes to this tab that will be seen only by you. Learn more ›
×
You can save this tab as Personal to edit and correct it or add notes. All changes will be seen only by you. Learn more »
launch autoscroll
font size
0
reset
how to read this tab
guitar tuner
edit
Autoscroll
slow
fast
+/-
esc
set tempo
stop
Author
Difficulty
Beautiful tune this one, and what a talented young lady!  I love this arrangement.
Please note, in one section of the song, the * symbol will be used to denote harp harmonics.
In another section, # will be used to denote natural harmonics.
If you don't know how to play harp harmonics, there are plenty of tutorials around, and takes
a bit of practice, but you'll get it in no time, with a little effort and dedication.
Here's the link to the vid: https://www.youtube.com/watch?v=xnP396-1U0s

e|---------------------------------------------------------------------------|
B|-------0-----------0-----------0-----------0---0-0-----0-------------------|
G|-------0-----------0-----------0-----------0-------------0-----------------|
D|-----2---2-------2---2-------2---2-------2---2-------2-----2---------------|
A|---2-------2---2-------2---2-------2---2-----------2-----------------------|
E|-0-----------0-----------0-----------0-----------0-----------3b-0----------|

e|-----------------------------------0-----------0-----------------0-------------|
B|-------------------------------------1-----------1-----------------1-------3---|
G|---4-5-4h-5p-4-2-4-2h-4p-2-------2-----2-----2-----------------0-----0---2---2-|
D|---2---2---------2---------2-2-2-----------2--------------0h-2---------0-------|
A|-2---------------------------0-----------0---------0h-2-3----------------------|
E|-------------------------------------------------------------------------------|

e|-0h-2p-0-----2-/-3-3-----2-----0---------0---------------------------------|
B|---------3---3-/-5-5---5---5-----5---3-----------0-----------0-------------|
G|-----------0---------4-------4-----4---4---------0-----------0-------------|
D|-0---------------------------------------------2---2-------2---2-----------|
A|---------------------------------------------2-------2---2-------2---------|
E|-------------------0-----------------------0-----------0-------------------|

e|-------------------------------------------------------------------------------|
B|------------0*------------------------------0*------------------------------0*-|
G|---------0*----------7*-------5*---------0*----------7*-------5*---------0*----|
D|------4*----------4*-------5*---------4*----------4*-------5*---------4*-------|
A|---7*----------5*-------3*---------7*----------5*-------3*---------7*----------|
E|-0-------------------------------0-------------------------------0-------------|

e|---------------------------------------------------------------------------|
B|----------5*----------5*----------------------4*-5*-----5-----------0------|
G|-------5*----------5*-------------4*-------4*---------0---0---------0------|
D|----4*----------5*-------------5*-------4*----------2-------2-----2---2----|
A|-5*----------3*-------------5*-------2*-------------------------2-------2--|
E|-------------------------3*-----------------------------------0------------|

e|---------------------------------------------------------------------------|
B|---------------------------------------------------------------------------|
G|-------------------------------0-------------------------------------------|
D|-----0h2-2---2/4-4h2-2-0---0h2---2-----0h2-2---2p0-----0h2-----------------|
A|---2-------2-----5-------3-----------2-------2-----5-5---------------------|
E|-0---------------------------------0---------------5-----------------------|

e|---------------------------------------------------------------------------|
B|---------------------------------------------------------------------------|
G|-------0---------0-0-0-------------------0---------0-----0-----------------|
D|---0h2---2-----2-------4p2-----0h2---0h2---2-----0---4-4---0---------------|
A|-3-----------2-------------5-5-----3-----------2-----6-6-------------------|
E|-----------0---------------5-----------------3-------7---------------------|

e|-------0-------------------------------------------------------------------|
B|---------0---------3-------------------------------------------------------|
G|-----0-----0-----0---0---------------------------------0-------------------|
D|-4\2-----------4-------4-----0h2-2---2/4-4-2-2-0---0h2---2-----------------|
A|---------------------------2-------2-----5-------3-------------------------|
E|-0-----------0-----------0-------------------------------------------------|

e|---------------------------------------------------------------------------|
B|---------------------------------------------------------------------------|
G|-------------------------------0---------------------0---------0-----------|
D|-----0h2-2---2p0-----0h2---0-2---2----9b-5-------------0-----0-------------|
A|---2-------2-----5-5-----3-----------10b-7--9p7--9-9-------7---------------|
E|-0---------------5-----------------0-------10---10-------8-----------------|

e|-----------------------0---------------------------------------------------|
B|-------------------------0---------3---------------------------------------|
G|-------0-----0-------0-----0-----0---0---------0-0-0---0-------------------|
D|-----0---4-4---0-4\2-----------4-------4-----2-------2---------------------|
A|---2-----6-6-------------------------------2-------------------------------|
E|-3-------7-------0-----------0-----------0---------------------------------|

e|---------------------------------------------------------------------------|
B|---0-----------------------0-0-0---------0---------------------------------|
G|-2---0---------0---------0-------2p0-2-2---0-------0-----------------------|
D|-4-----0---0h2---2-----2-------------4-4-------0h2---2---------------------|
A|-5-------3-----------2---------------5-------3-----------------------------|
E|-------------------0-------------------------------------------------------|

e|---------------------------------------------------------------------------|
B|---------------------------------------------------------------------------|
G|-------0-0-0---------0---------0---------0-----0---------------------------|
D|-----2-------4p2-4-4---0---0h2---2-----0---4-4---0-4-----------------------|
A|---2-------------5-------3-----------2-----6-6-------h7--------------------|
E|-0---------------------------------3-------7-------0-----------------------|

e|---0------------0---------0-------0---------------3------------------------|
B|-----0--------1---------0-----7---7---7/8-7-5-7-7---5----------------------|
G|-0-----0----0-----0---6-------7---7---7---7-7---------0--------------------|
D|----------------------------0-0-0-0-0-0-----0------------------------------|
A|----------3---------0---------------------------3-------0------------------|
E|---------------------------------------------------------------------------|

e|-----0-------0---------------3-----------0---2-2-2-2-----------------------|
B|---0-----7---7---7/8-7-5-7-7---5-------0-----3---3-3-----------------------|
G|-6-------7---7---7---7-7---------0---6-----0-2---2-------------------------|
D|-------0-0-0-0-0-0-----0---------------------0---0-------------------------|
A|---------------------------3-------0---------------------------------------|
E|---------------------------------------------------------------------------|
                            
e|-2p0---0-----------0-----|-------------------------------------------------|
B|-----0---0-------0---0---|-------------------------------------------------|
G|-----------0---0-------0-|---------------------------------------0---------|
D|-------------------------|-----2---0h2-----2---2/4-4p2-2-0-----2-----------|
A|-------------------------|---2-----------2---------5-------0h3-------------|
E|-0-----------0-----------|-0-----0-----0-----0-----------------------------|

e|---------------------------------------------------------------------------|
B|---------------------------------------------------------------------------|
G|---------------------------------------------0----------0---0--------------|
D|-----------2---0h2-----2---2p0-----0h2---0h2---2---4/-5---------4----------|
A|---------2-----------2---------5-5-----3-----------5/-7---7---7---7--------|
E|-2h3p2-0-----0-----0-----0-----5-----------------0-------------------------|

e|---------------------------------------------0-----------------------------|
B|-----------------------------------------------0---------------------------|
G|-------------------0---------0-----0-------0-----0-------------------------|
D|-2-------0h2---0h2---2-----0---4-4---0-4\2---------------------------------|
A|---5-5-5-----3-----------2-----6-6-----------------------------------------|
E|-----5-----------------3-------7-------0-----------------------------------|

e|-0-0-0-0-0-0-0-0------0---------------3-----------0------------------------|
B|-1-1-1-0-0-0-0-0--7---7---7/8-7-5-7-7---5-------0--------------------------|
G|-0-0-0-0-2-2-2-0--7---7---7---7-7---------0---6----------------------------|
D|-2-2-2-0-2-2-2-0--0-0-0-0-0-----0-------------------0----------------------|
A|-3-3-3-0-0-0-0-0--------------------3-------0------------------------------|
E|---------------------------------------------------------------------------|

e|-----0---------------3-----------0----2-2-2---2p0--------------------------|
B|-7---7---7/8-7-5-7-7---5-------0------3-3-3--------------------------------|
G|-7---7---7---7-7---------0---6-----0--2---2-2------------------------------|
D|-0-0-0-0-0-----0----------------------0---0--------------------------------|
A|-------------------3-------0-----------------------------------------------|
E|----------------------------------------------0----------------------------|

e|---0-----------0-----3-----5-----7-----8------8-----8----------------------|
B|-----0-------0---0-----5-----7-----8-----10-----5-----5--------------------|
G|-0-----0---0-------0-----4-----4-----9------9-----5-----5------------------|
D|---------------------------------------------------------------------------|
A|----------------------------------------------0----------------------------|
E|---------0-----------0-----------0-----------------------------------------|

e|------8-----0-----0---0-----0---0h7-----7p0-----------0--------------------|
B|----5---5-----1-----1---3-----0-----0-------0-------0---0------------------|
G|--5-------5-----0---------2-----------0-------0---0-------0----------------|
D|----------------------0----------------------------------------------------|
A|-0----------0--------------------------------------------------------------|
E|--------------------------------0---------------0--------------------------|

e|-3-----5-----7-----8------8-----8-----------8-----0------------------------|
B|---5-----7-----8-----10-----5-----5-------5---5-----1----------------------|
G|-----4-----4-----9------9-----5-----5---5-------5-----0--------------------|
D|---------------------------------------------------------------------------|
A|--------------------------0-----------0-----------3------------------------|
E|-0-----------0-------------------------------------------------------------|

e|-0---0-----0---0h7-----7p0-----------0-----|-------------------------------|
B|---0---3-----0-----0-------0-------0---0---|-------------------------------|
G|---------2-----------0-------0---0-------0-|-------------------------------|
D|-----0-------------------------------------|-----2---0h2-----2-------------|
A|-------------------------------------------|---2-----------2---------------|
E|---------------0---------------0-----------|-0-----0-----0-----------------|

e|---------------------------------------------------------------------------|
B|---------------------------------------------------------------------------|
G|--------------------0------------------------------------------------------|
D|--2/4-4p2-2-0-----0-------------2---0h2-----2---2p0-----0h2----------------|
A|------5-------0h3-------------2-----------2---------5-5--------------------|
E|-0--------------------2h3p2-0-----0-----0-----0-----5----------------------|

e|----------|----------------------------------------------------------------|
B|----------|------12#-------------------------------------------------------|
G|------0---|-------------------12#-h11---------0---------0-------0----------|
D|--0h2---2-|-------------7#----------------------0-----0-------0------------|
A|-3--------|---7#-----7#----7#---------7#--9-9-------7-------2--------------|
E|----------|-0----------------------------10-------8-------3----------------|
                                     
e|---------------------------------------------------------------------------|
B|-----------------------------------------------0---------------------------|
G|-----0---------4-----------4---------0-0-0---0-2---0-----------------------|
D|-4-4---0-2---2-2-2-------2-2-2------2-----2---4----------------------------|
A|-6-6-----2-2-------2---2-------2---2---------5-----------------------------|
E|-7-------0-----------0-----------0-----------------------------------------|

e|-------------------0-0-0---------------------------------------------------|
B|-------------------------3p0---0-1p0---------------------------------------|
G|---------0-------0-----------2---0---------0-----0-0-0---------------------|
D|-0---0h2---2----2------------0---------0-2---2---2-----4p2-----------------|
A|---3-----------2---------------------3-----------2-------------------------|
E|-------------0---------------------------------0---------------------------|

e|------------------------------------------------0-0-0-0--------------------|
B|------------------------------------------------1-1-1-0--------------------|
G|-----0---------0---------0-----0---------4------0-0-0-0--------------------|
D|-4-4---0---0h2---2-----0---4-4---0-2---2-2-2----2-2-2-0--------------------|
A|-5-------3-----------2-----6-6-----2-2-------2--3-3-3-0--------------------|
E|-------------------3-------7-------0---------------------------------------|

e|-0-0-0-0-2-2-2-2-2h3p2-0-2-2-3p0-----0-0-0-0-------------------------------|
B|-0-0-0-0-3-3-3-3-3-----3-0-1-----x---0-0-0-0-------------------------------|
G|-2-2-2-0-2-2-2-2-2-----2-0-0-----x-2-2-2-2-0-------------------------------|
D|-2-2-2-0-0-0-0-0-0-----0---0-----x-2-2-2-2-0-------------------------------|
A|-0-0-0-0-------------------3-----x---0-0-0-0-------------------------------|
E|---------------------------------------------------------------------------|

e|-2-2-2-2-2h3p2-0-2-2-3p0-----0-0-0-0-2-2-2-2-2h3p2-------------------------|
B|-3-3-3-3-3-----3-0-1-----x---0-0-0-0-3-3-3-3-3-----------------------------|
G|-2-2-2-2-2-----2-0-0-----x-2-2-2-2-0-2-2-2-2-2-----------------------------|
D|-0-0-0-0-0-----0---0-----x-2-2-2-2-0-0-0-0-0-0-----------------------------|
A|-------------------3-----x---0-0-0-0---------------------------------------|
E|---------------------------------------------------------------------------|

e|-2-2-2h3p0-----0-0-0-0-2-2-2-2-2h3p2-0-2-2-3-0-----------------------------|
B|-3-0-1-----x---0-0-0-0-3-3-3-3-3-----2-0-1-----x---------------------------|
G|-2-0-0-----x-2-2-2-2-0-2-2-2-2-2-----3-0-0-----x---------------------------|
D|-0---0-----x-2-2-2-2-0-0-0-0-0-0-----0---0-----x---------------------------|
A|-----3-----x---0-0-0-0-------------------3-----x---------------------------|
E|---------------------------------------------------------------------------|

e|---0-0-0-0-2-2-2-0----0-0--------------------------------------------------|
B|---0-0-0-0-3-3-3-0----0-0-0-0-0-0-0-0-0-0-0--------------------------------|
G|-2-2-2-2-0-2-2-2-0----0-0-0-0-0-0-0-0-0-0-0--------------------------------|
D|-2-2-2-2-0-0-0-0-0----2-2-2-2-2-2-2-2-2-2-2--------------------------------|
A|---0-0-0-0------------2-2-2-2-2-2-2-2-2-2-2--------------------------------|
E|--------------------0-0-0-0-0-0-0-0-0-0-0-0--------------------------------|

  Solo Section
e|-2-/-7-7-5-3-3---2h3p2p0h2p0-------------------0---3b----------------------|
B|-3-/-8-8-7-5-5/3-3-------------------------3-----0-------------------------|
G|-------0-----0---2-----------------0---2/4---4-----------------------------|
D|-----------------0-------------0h2---0-------------------------------------|
A|-----------------------------3---------------------------------------------|
E|-0---------0---------------------------0-----------0-----------------------|

e|-0-------------------------------3-2h3p2---3-2h3p2-5-3-2h3p2p0-------------|
B|-----3p2p0-------------------------------0---------------------0h3p0-------|
G|---0-------2p0-2p0-2p1-0-----0---------------------------------------------|
D|-----------0-------0-----0h2---2---------------------0---------------------|
A|-----------------------3---------------------------------------------------|
E|---------------------------------0-----------------------------------------|

e|---------------------------------0-----------0-----------------------------|
B|-----------------------------------0-------0---0---------------------------|
G|-------0-------0-0-----0-------0-----0---0-------0-------------------------|
D|---0h2---2---0-----4-4---0-4/2---------------------------------------------|
A|-3-----------------6-6-----------------------------------------------------|
E|-----------0-------7-------0-----------0-----------------------------------|

e|-------0-----------0-------------------------------------------------------|
B|-----0---0-------0---0-----------------------------------------------------|
G|---0-------0---0-------0-------------------------------0-------------------|
D|-----------------------------0h2-2---2/4-4p2-2-0---0h2---2-----------------|
A|---------------------------2-------2-----5-------3-------------------------|
E|-0-----------0-----------0-------------------------------------------------|

e|---------------------------------------------------------------------------|
B|---------------------------------------------------------------------------|
G|-------------------------------0-------0-0-0---------0---------------------|
D|-----0h2-2---2p0-----0-2---0h2---2----2------4p2-4-4---0-------------------|
A|---2-------2-----5-5-----3-----------2-----------5-------------------------|
E|-0---------------5-----------------0---------------------------------------|

e|---------------------------------0-----------------------------------------|
B|-----------------------------------0---------3-----------------------------|
G|-------0---------0-----0-------0-----0-----0---0---------------------------|
D|---0h2---2-----0---4-4---0-4\2-----------4---------------------------------|
A|-3-----------2-----6-6-----------------------------------------------------|
E|-----------3-------7-------0-----------0-----------------------------------|

e|-7-7-----7p0---------7-8-7h8p7-5-7-5h7p5p0--0-----0-----------0------------|
B|-------0-----0----------------------------------0---0-------0---0----------|
G|-----0---------0---0--------------------------0-------0---0----------------|
D|---------------------------------------------------------------------------|
A|---------------------------------------------------------------------------|
E|---0-------------0--------------------------0-----------0------------------|
                                                           Fade out.
e|-7-7-----7p0---------7-8-7h8p7-5-7-5h7p5p0--0-----0------------------------|
B|-------0-----0----------------------------------0---0----------------------|
G|-----0---------0---0--------------------------0-------0--------------------|
D|---------------------------------------------------------------------------|
A|---------------------------------------------------------------------------|
E|---0-------------0--------------------------0------------------------------|




************************************

| x  Dead note
| h  Hammer-on
| p  Pull-off
| b  Bend
| /  Slide up
| \  Slide down

************************************
Suggest correction
Creating personal tab
Creating personal tab
You can edit any tab online and save it as your Personal.

You can edit, replace or remove any tab part or add personal notes – all changes will be seen only by you.

Personal tabs can be accessed anytime from any device, even offline.
Learn more »
comments
print report bad tab
guest
You may want to rate the tab now too:
select rating
Wanna post a correction for this tab? Suggest correction