Oops, an error
Loading. Please wait.

Out Of Reach Bass Tab

version 2
version 2

Whole song

Interactive

5,344 views 3 this week
no commentswrite comment
1 2 3 4 5
2 more votes to show rating
add to favorites
launch autoscroll
font size
0
reset
guitar tuner
Autoscroll
slow
fast
+/-
esc
set tempo
stop
Help us to improve Ultimate-Guitar.com Take our survey!
×
Author
Difficulty
novice
this is pretty much correct i think theres a few sticato notes in there ive labelled a 
of em but if you think its rong just do it yourself=D enjoy
oh and its in drop D
D A D G

KEY:
.=sticato
~=let ring
/\=slide up or down

main riff
G|--------------------------------------|
D|--------------------------------------|
A|--2--22--2----------------------------|
D|---46-----6-2466--6-4-1244--4-2-0h222-|
       .        .   .     .          .
pre-chorusy thingy
G|--------------------------|
D|----------------2~--------|
A|--------/4~---------------|
E|--6~-------------------4~-|

and thats it
thanx
Suggest correction
Give kudos to tab author, rate the tab!
1 2 3 4 5
comments
print report bad tab
guest
You may want to rate the tab now too:
select rating
Wanna post a correction for this tab? Suggest correction