Oops, an error
Loading. Please wait.

Out Of Reach Bass Tab

version 4
version 4

Whole song

Interactive

1,099 views 1 this week
no commentswrite comment
1 2 3 4 5
3 more votes to show rating
add to favorites
launch autoscroll
font size
0
reset
guitar tuner
Autoscroll
slow
fast
+/-
esc
set tempo
stop
Help us to improve Ultimate-Guitar.com Take our survey!
×
Difficulty
novice
Actually you need a 5 string bass for this
but if you only have a 4 string bass, you can get the tabs from the others

Intro

G----------------------------------------------------|
D----------------------------------------------------|
A----------------------------------------------------|
E--7-----------4--------------2--------------0-------|
B----------------------------------------------------|

1st Verse, 2nd and chorus

Knew the signs wasnt right, I was stupid for awhile


G-------------------------------------------------------|
D-------------------------------------------------------|
A-------------------------------------------------------|   2x
E---------7-----77------4-----44----2----22-----0---00--|
B-----------87---------5----54-----3---32------2--21----|

at 2nd time (at this time change the last part with this)

-----------|
-----------|
-----------|
---0-------|
2----------|

Bridge
      So confused,  my heart's bruised, was I ever hurt by you
G-----------------------------------------------------|
D-----------------------------------------------------|
A-----------------------------------------------------|
E-4---------------5-------------------0-------------5-|
B-----------------------------------------------------|
Suggest correction
Give kudos to tab author, rate the tab!
1 2 3 4 5
comments
print report bad tab
guest
You may want to rate the tab now too:
select rating
Wanna post a correction for this tab? Suggest correction