Oops, an error
Loading. Please wait.

Ghosts Chords

version 1
version 1

Whole song

1,627 views 21 this week
no commentswrite comment
1 2 3 4 5
x 3
add to favorites
launch autoscroll
font size
0
reset
transpose
0
reset
display chords
guitar tuner
×
Best way to learn
"Ghosts"
Autoscroll
slow
fast
+/-
esc
set tempo
stop
Author
Difficulty
Capo
  follow
novice
3rd fret
Capo 3

Intro:
Em D C D

e-|-------------------------------------------------------|
B-|---0---0---0---0---------------------------------------|
G-|-----0-------0-----2--2--2--2---0---0---0---0---2------| 
D-|--2------2-------0--0--0--0-------2-------2---0---0----|
A-|------------------------------3-------3----------------|
E-|-------------------------------------------------------|     
(Continue pattern through the first verse)

Verse 1:
Em           D
I'm sick and tired of
C              D
Hanging out my window,
Em                    D
To learn from past experience 
C                       D
Rain can't make flowers grow,

Em                  D
Friends don't stick around
C                     D
They go which way the wind goes,
Em                    D
You're never safe and sound 
C                       
Till all your 
            D
Doors are closed,

e-|----------------------------------------|
B-|----------3--0--------------------------|
G-|--0h2--0-------2—0h2---0h2--0--4--------| x4
D-|---------------------------------4------|
A-|----------------------------------------|
E-|----------------------------------------|
            D
Doors are closed,
            D   G   D
Doors are closed...

Chorus:
G           
When you're awake 
         Em           C          D
And your own shadows turn into ghosts
G           
When you're awake 
         Em           C          D   G D
And your own shadows turn into ghosts...
Em
Oh oh...

e-|-------------------------------------------------------|
B-|---0---0---0---0---------------------------------------|
G-|-----0-------0-----2--2--2--2---0---0---0---0---2------|
D-|--2------2-------0--0--0--0-------2-------2---0---0----|
A-|------------------------------3-------3----------------|
E-|-------------------------------------------------------|

Verse 2:
Em                  D
Soon it’ll all fall apart
C                         D
And their roads will have no way,
Em                         D
And you'll be the one laughing as
C                 D
Their fences fade away,
G
And instead of being left there,
D           Em
Feeling all alone,
Em               C                 D     G
Break down the house you made of match sticks
         Em
And set fire 
           D  G
To their throne...

e-|----------------------------------------|
B-|----------3--0--------------------------|
G-|--0h2--0-------2—0h2---0h2--0--4--------| x4
D-|---------------------------------4------|
A-|----------------------------------------|
E-|----------------------------------------|
            D
To their thrones,
            D   G   D
To their thrones...

Chorus:
G           
When you're awake 
         Em           C          D
And your own shadows turn into ghosts
G           
When you're awake 
         Em           C          D   G D
And your own shadows turn into ghosts...

Bridge:
Em                         C            G
Home becomes what you're scared of the most, 
Em                         C            G
Home becomes what you're scared of the most,
Em
When shadows turn into ghosts, 
                              Em     D
It’s what you’re scared of the most

e-|----------------------------------------|
B-|----------3--0--------------------------|
G-|--0h2--0-------2—0h2---0h2--0--4--------| 
D-|---------------------------------4------| x2
A-|----------------------------------------|
E-|----------------------------------------|
(Continue pattern for first two lines)

Em                            G                            Em
I'm pulling pictures off the wall watching smiles as they fall,
Em                            G                            C
I'm pulling pictures off the wall watching smiles as they fall,
G                             D                            Em
I'm pulling pictures off the wall watching smiles as they fall,
                        C    G
Pulling pictures off the wall,
G                             D                            Em   C    G
I'm pulling pictures off the wall watching smiles as they fall... 


Chorus: 
G           
When you're awake 
         Em           C          D
And your own shadows turn into ghosts
G           
When you're awake 
         Em           C          D   G D
And your own shadows turn into ghosts...
Em                         C            G
Home becomes what you're scared of the most, 
Em                         C            G
Home becomes what you're scared of the most,
Em
When shadows turn into ghosts,
                             Em     D (Strum slowly)
It’s what you’re scared of the most...
Suggest correction
Give kudos to tab author, rate the tab!
1 2 3 4 5
comments
print report bad tab
guest
You may want to rate the tab now too:
select rating
Wanna post a correction for this tab? Suggest correction