Oops, an error
Loading. Please wait.

Home Tab

version 1
version 1

Whole song

Interactive

39,671 views 78 this week
3 commentsread comments
1 2 3 4 5
x 28
add to favorites
launch autoscroll
font size
0
reset
how to read this tab
guitar tuner
Autoscroll
slow
fast
+/-
esc
set tempo
stop
Difficulty
intermediate
Tuning: e b F# d a D

[Intro]
e |------------|------------|------------|------------|
b |------------|------------|------------|------------|
F#|---5---5----|---5---5----|---5---5----|---5---5----|
d |---0---0----|---0---0----|---0---0----|---0---0----|
a |------------|------------|------------|------------|
D |-5---5------|-5---5------|-5---5------|-5---5------|

e |------------|------------|------------|------------|
b |------------|------------|------------|------------|
F#|---3---3----|---3---3----|---0---0----|---0---0----|
d |---0---0----|---0---0----|---0---0----|---0---0----|
a |-2---2------|-2---2------|-2---2------|-2---2------|
D |------------|------------|------------|------------|

[Verse 1]
    Im a Phoenix....        a fish that's learnt to fly
e |------------|------------|------------|------------|
b |------------|------------|------------|------------|
F#|-------5----|------------|-3----------|------------|
d |-------0----|------------|-0----------|------------|
a |------------|------------|-2----------|------------|
D |-------5----|------------|------------|------------|

 and I've Always...       But feathers are meant for the sky
e |------------|------------|------------|------------|
b |------------|------------|------------|------------|
F#|-------5----|------------|-3----------|------------|
d |-------0----|------------|-0----------|------------|
a |------------|------------|-2----------|------------|
D |-------5----|------------|------------|------------|

 So I’m wishing, wishing further
e |------------|------------|------------|------------|
b |------------|------------|------------|------------|
F#|---5---5----|---5---5----|---5---5----|---5---5----|
d |---0---0----|---0---0----|---0---0----|---0---0----|
a |------------|------------|------------|------------|
D |-5---5------|-5---5------|-5---5------|-5---5------|

For the excitement to arrive
e |------------|------------|------------|------------|
b |------------|------------|------------|------------|
F#|---3---3----|---3---3----|---3---3----|---3---3----|
d |---0---0----|---0---0----|---0---0----|---0---0----|
a |-2---2------|-2---2------|-2---2------|-2---2------|
D |------------|------------|------------|------------|

It’s just I’d rather be causing the chaos Than living at the
e |------------|------------|------------|------------|
b |------------|------------|------------|------------|
F#|---5---5----|---5---5----|---5---5----|---5---5----|
d |---0---0----|---0---0----|---0---0----|---0---0----|
a |------------|------------|------------|------------|
D |-5---5------|-5---5------|-5---5------|-5---5------|

         sharp end of this knife
e |------------|------------|------------|------------|
b |------------|------------|------------|------------|
F#|---3---3----|---3---3----|---3---3----|---3---3----|
d |---0---0----|---0---0----|---0---0----|---0---0----|
a |-2---2------|-2---2------|-2---2------|-2---2------|
D |------------|------------|------------|------------|

[Pre-Chorus]
      With every              small disaster
e |------------|------------|------------|------------|
b |------------|------------|------------|------------|
F#|---5---5----|---5---5----|---3---3----|---3---3----|
d |---0---0----|---0---0----|---0---0----|---0---0----|
a |------------|------------|------------|------------|
D |-5---5------|-5---5------|-4---4------|-4---4------|

      I’ll let the            waters still
e |------------|------------|------------|------------|
b |------------|------------|------------|------------|
F#|---7---7----|---7---7----|---8---8----|---8---8----|
d |---0---0----|---0---0----|---0---0----|---0---0----|
a |------------|------------|------------|------------|
D |-7---7------|-7---7------|-9---9------|-9---9------|

        Take me             away to some place
e |------------|------------|------------|------------|
b |------------|------------|------------|------------|
F#|---5---5----|---5---5----|---3---3----|---3---3----|
d |---0---0----|---0---0----|---0---0----|---0---0----|
a |------------|------------|------------|------------|
D |-5---5------|-5---5------|-4---4------|-4---4------|

    real
e |------------|------------|------------|-------------~~
b |------------|------------|------------|-------------~~
F#|---7---7----|---7---7----|~~~~~~--------------------~~
d |---0---0----|---0---0----|~~------------------------~~
a |------------|------------|--------------------------~~
D |-7---7------|-7---7---7~~|~-------------------------~~

[Chorus]
'Cause they say..

    Home        is   where your heart        is set in
e |------------|------------|------------|------------|
b |------------|------------|------------|------------|
F#|---5---5----|---5---5----|---5---5----|---5---7----|
d |---0---0----|---0---0----|---0---0----|---0---0----|
a |------------|------------|------------|------------|
D |-5---5------|-5---5------|-5---5------|-5---7------|

    stone- Is    where  you  go  when  you’re
e |------------|------------|------------|------------|
b |------------|------------|------------|------------|
F#|---8---8----|---8---8----|---8---8----|---8---8----|
d |---0---0----|---0---0----|---0---0----|---0---0----|
a |------------|------------|------------|------------|
D |-9---9------|-9---9------|-9---9------|-9---9------|

    alone     Is where you   go   to      rest your
e |------------|------------|------------|------------|
b |------------|------------|------------|------------|
F#|------------|------------|------------|------------|
d |------------|------------|------------|------------|
a |-9---9------|-7---5------|-9---9------|-7---5------|
D |---0---0----|---0---0----|---0---0----|---0---0----|

    bones                                      It’s
e |------------|------------|------------|------------|
b |------------|------------|------------|------------|
F#|---7---7----|---7---7----|---7---7----|---7---3----|
d |---0---0----|---0---0----|---0---0----|---0---0----|
a |------------|------------|------------|------------|
D |-7---7------|-7---7------|-7---7------|-7---4------|

    not        just          where you lay    your
e |------------|------------|------------|------------|
b |------------|------------|------------|------------|
F#|---5---5----|---5---5----|---5---5----|---5---7----|
d |---0---0----|---0---0----|---0---0----|---0---0----|
a |------------|------------|------------|------------|
D |-5---5------|-5---5------|-5---5------|-5---7------|

   head- It's   not          just where   you make your
e |------------|------------|------------|------------|
b |------------|------------|------------|------------|
F#|---8---8----|---8---8----|---8---8----|---8---8----|
d |---0---0----|---0---0----|---0---0----|---0---0----|
a |------------|------------|------------|------------|
D |-9---9------|-9---9------|-9---9------|-9---9------|

    bed  As     long as     we’re together,does it
e |------------|------------|------------|------------|
b |------------|------------|------------|------------|
F#|------------|------------|------------|------------|
d |------------|------------|------------|------------|
a |-9---9------|-7---5------|-9---9------|-7---5------|
D |---0---0----|---0---0----|---0---0----|---0---0----|

    matter        where we    go? Home---
e |------------|------------|------------|------------|
b |------------|------------|------------|------------|
F#|---7---7----|---7---7----|---7---7----|---7---3----|
d |---0---0----|---0---0----|---0---0----|---0---0----|
a |------------|------------|------------|------------|
D |-7---7------|-7---7------|-7---7------|-7---4------|

    Home                          Home
e |------------|------------|------------|------------|
b |------------|------------|------------|------------|
F#|---5---5----|---5---5----|---5---5----|---5---5----|
d |---0---0----|---0---0----|---0---0----|---0---0----|
a |------------|------------|------------|------------|
D |-5---5------|-5---5------|-5---5------|-5---5------|

    Home                            home
e |------------|------------|------------|------------|
b |------------|------------|------------|------------|
F#|---8---8----|---8---8----|---8---8----|---8---8----|
d |---0---0----|---0---0----|---0---0----|---0---0----|
a |------------|------------|------------|------------|
D |-9---9------|-9---9------|-9---9------|-9---9------|

    Home                          Home
e |------------|------------|------------|------------|
b |------------|------------|------------|------------|
F#|---5---5----|---5---5----|---5---5----|---5---5----|
d |---0---0----|---0---0----|---0---0----|---0---0----|
a |------------|------------|------------|------------|
D |-5---5------|-5---5------|-5---5------|-5---5------|

    Home                            home
e |------------|------------|------------|------------|
b |------------|------------|------------|------------|
F#|---8---8----|---8---8----|---8---8----|---8---8----|
d |---0---0----|---0---0----|---0---0----|---0---0----|
a |------------|------------|------------|------------|
D |-9---9------|-9---9------|-9---9------|-9---9------|

[Verse 2]
So when I’m ready to be bolder,
And my cuts have healed with time
Comfort will rest on my shoulder
And I’ll bury my future behind
I’ll always keep you with me
You’ll be always on my mind
But there’s a shining in the shadows
I’ll never know unless I try


[Pre-Chorus]
      With every              small disaster
e |------------|------------|------------|------------|
b |------------|------------|------------|------------|
F#|---5---5----|---5---5----|---3---3----|---3---3----|
d |---0---0----|---0---0----|---0---0----|---0---0----|
a |------------|------------|------------|------------|
D |-5---5------|-5---5------|-4---4------|-4---4------|

      I’ll let the            waters still
e |------------|------------|------------|------------|
b |------------|------------|------------|------------|
F#|---7---7----|---7---7----|---8---8----|---8---8----|
d |---0---0----|---0---0----|---0---0----|---0---0----|
a |------------|------------|------------|------------|
D |-7---7------|-7---7------|-9---9------|-9---9------|

        Take me             away to some place
e |------------|------------|------------|------------|
b |------------|------------|------------|------------|
F#|---5---5----|---5---5----|---3---3----|---3---3----|
d |---0---0----|---0---0----|---0---0----|---0---0----|
a |------------|------------|------------|------------|
D |-5---5------|-5---5------|-4---4------|-4---4------|

    real
e |------------|------------|------------|-------------~~
b |------------|------------|------------|-------------~~
F#|---7---7----|---7---7----|~~~~~~--------------------~~
d |---0---0----|---0---0----|~~------------------------~~
a |------------|------------|--------------------------~~
D |-7---7------|-7---7---7~~|~-------------------------~~

[Chorus]
'Cause they say..

    Home        is   where your heart        is set in
e |------------|------------|------------|------------|
b |------------|------------|------------|------------|
F#|---5---5----|---5---5----|---5---5----|---5---7----|
d |---0---0----|---0---0----|---0---0----|---0---0----|
a |------------|------------|------------|------------|
D |-5---5------|-5---5------|-5---5------|-5---7------|

    stone- Is    where  you  go  when  you’re
e |------------|------------|------------|------------|
b |------------|------------|------------|------------|
F#|---8---8----|---8---8----|---8---8----|---8---8----|
d |---0---0----|---0---0----|---0---0----|---0---0----|
a |------------|------------|------------|------------|
D |-9---9------|-9---9------|-9---9------|-9---9------|

    alone     Is where you   go   to      rest your
e |------------|------------|------------|------------|
b |------------|------------|------------|------------|
F#|------------|------------|------------|------------|
d |------------|------------|------------|------------|
a |-9---9------|-7---5------|-9---9------|-7---5------|
D |---0---0----|---0---0----|---0---0----|---0---0----|

    bones                                      It’s
e |------------|------------|------------|------------|
b |------------|------------|------------|------------|
F#|---7---7----|---7---7----|---7---7----|---7---3----|
d |---0---0----|---0---0----|---0---0----|---0---0----|
a |------------|------------|------------|------------|
D |-7---7------|-7---7------|-7---7------|-7---4------|

    not        just          where you lay    your
e |------------|------------|------------|------------|
b |------------|------------|------------|------------|
F#|---5---5----|---5---5----|---5---5----|---5---7----|
d |---0---0----|---0---0----|---0---0----|---0---0----|
a |------------|------------|------------|------------|
D |-5---5------|-5---5------|-5---5------|-5---7------|

   head- It's   not          just where   you make your
e |------------|------------|------------|------------|
b |------------|------------|------------|------------|
F#|---8---8----|---8---8----|---8---8----|---8---8----|
d |---0---0----|---0---0----|---0---0----|---0---0----|
a |------------|------------|------------|------------|
D |-9---9------|-9---9------|-9---9------|-9---9------|

    bed  As     long as     we’re together,does it
e |------------|------------|------------|------------|
b |------------|------------|------------|------------|
F#|------------|------------|------------|------------|
d |------------|------------|------------|------------|
a |-9---9------|-7---5------|-9---9------|-7---5------|
D |---0---0----|---0---0----|---0---0----|---0---0----|

    matter        where we    go? Home---
e |------------|------------|------------|------------|
b |------------|------------|------------|------------|
F#|---7---7----|---7---7----|---7---7----|---7---3----|
d |---0---0----|---0---0----|---0---0----|---0---0----|
a |------------|------------|------------|------------|
D |-7---7------|-7---7------|-7---7------|-7---4------|

    Home                          Home
e |------------|------------|------------|------------|
b |------------|------------|------------|------------|
F#|---5---5----|---5---5----|---5---5----|---5---5----|
d |---0---0----|---0---0----|---0---0----|---0---0----|
a |------------|------------|------------|------------|
D |-5---5------|-5---5------|-5---5------|-5---5------|

    Home                            home
e |------------|------------|------------|------------|
b |------------|------------|------------|------------|
F#|---8---8----|---8---8----|---8---8----|---8---8----|
d |---0---0----|---0---0----|---0---0----|---0---0----|
a |------------|------------|------------|------------|
D |-9---9------|-9---9------|-9---9------|-9---9------|

    Home                          Home
e |------------|------------|------------|------------|
b |------------|------------|------------|------------|
F#|---5---5----|---5---5----|---5---5----|---5---5----|
d |---0---0----|---0---0----|---0---0----|---0---0----|
a |------------|------------|------------|------------|
D |-5---5------|-5---5------|-5---5------|-5---5------|

    Home                            home
e |------------|------------|------------|------------|
b |------------|------------|------------|------------|
F#|---8---8----|---8---8----|---8---8----|---8---8----|
d |---0---0----|---0---0----|---0---0----|---0---0----|
a |------------|------------|------------|------------|
D |-9---9------|-9---9------|-9---9------|-9---9------|

(other plucking patterns from live performances. this pattern can also apply to the 
pre-chorus and chorus. any variation is fine really)
e |------------|------------|------------|------------|
b |------------|------------|------------|------------|
F#|-------5----|-------5----|-------5----|-------5----|
d |---0--------|---0--------|---0--------|---0--------|
a |------------|------------|------------|------------|
D |-5---5------|-5---5------|-5---5------|-5---5------|

e |------------|------------|------------|------------|
b |------------|------------|------------|------------|
F#|-------3----|-------3----|-------3----|-------0----|
d |---0--------|---0--------|---0--------|---0--------|
a |-2---2------|-2---2------|-2---2------|-2---2------|
D |------------|------------|------------|------------|


************************************

| ~  Vibrato

************************************
Suggest correction
comments
print report bad tab
3 comments total.
0 reply
deannamanning 95 Jun 17, 2013 10:25 AM

Excellent tab! 5 stars.

0 reply
mmsimpson 73 Apr 16, 2014 01:06 PM

Great job!

+1 reply
IsaacAtLife 141 Feb 26, 2015 11:24 AM

Instead of this for the chorus:

a |-9---9------|-7---5------|-9---9------|-7---5------|
D |---0---0----|---0---0----|---0---0----|---0---0----|

It may be easier to play this instead to keep the rhythm going:
e |------------|------------|------------|------------|
b |------------|------------|------------|------------|
F#|---0---0----|---0---0----|---0---0----|---0---0----|
d |---0---0----|---0---0----|---0---0----|---0---0----|
a |------------|------------|------------|------------|
D |-0---0------|-0---0------|-0---0------|-0---0------|

guest
You may want to rate the tab now too:
select rating
Wanna post a correction for this tab? Suggest correction