Oops, an error
Loading. Please wait.

Out On My Own tab

10,121 views 3 this week
no commentswrite comment
1 2 3 4 5
x 5
add to favorites
×
Save as Personal and add changes to this tab that will be seen only by you. Learn more ›
×
You can save this tab as Personal to edit and correct it or add notes. All changes will be seen only by you. Learn more »
launch autoscroll
font size
0
reset
how to read this tab
guitar tuner
edit
Autoscroll
slow
fast
+/-
esc
set tempo
stop
----------------------------------------------------------------------
                             Out On My Own - Gabrielle Aplin
----------------------------------------------------------------------
Tabbed by: Neil Wicker
Email: wicker101@hotmail.co.uk

Tuning: Standard 
tabbed from this: http://www.youtube.com/watch?v=3Mk87hkMl-c 

Capo 5 (all notes relative to capo) 

Intro:

   
e|-------------------------------------------------------|
B|-----------------0-------------------------------------|
G|-----0-----0-----------0-----0-----0---------0-----0---|
D|-------------------------------------------------------| x2
A|--------------3-----3-----2-----2----------------------|
E|--0-----0-----------------------------2--3------3------|



Verse 1:

    
e|------------------------------------------------------|
B|-----------------0------------------------------------|
G|-----0-----0-----------0-----0-----0--------0-----0---|
D|------------------------------------------------------| x2
A|--------------3-----3-----2-----2---------------------|
E|--0-----0-----------------------------2-3------3------|

I think I’ve outgrown my home
I’m kind of feeling lost wherever I go
And I could be staring it right in the face and I wouldn’t know
I think I’ve outgrown my home

Verse 2:
(same as verse 1)

I have a song in my heart
And just like life it has a middle, an end, and a start
And who knows if I’m on the path if I’m walking in the dark?
I have a song in my heart


Pre-Chorus:
   C
e|------------------------------------------------------------|
B|------------------------------------------------------------|
G|-----0-------0-----0-------0-----0-------0-----0-------0----|
D|--------0h2-----------0h2-----------0h2-----------0h2-------|
A|--3-------------3-------------3-------------3---------------|
E|------------------------------------------------------------|

   G 
e|---------------------------------------------------|
B|---------------------------------------------------|
G|-----0-----0-----0-----0-----0-----0-----0-----0---|
D|--------------------0-----------------------0------|
A|--------2-----------------------2------------------|
E|--3-----------3-----------3-----------3------------|

I’m happy just to float

    C
e|------------------------------------------------------------|
B|------------------------------------------------------------|
G|-----0-------0-----0-------0-----0-------0-----0-------0----|
D|--------0h2-----------0h2-----------0h2-----------0h2-------|
A|--3-------------3-------------3-------------3---------------|
E|------------------------------------------------------------|

   G                        Gmaj7 (054030)
e|----------------------------------------------------|
B|----------------------------------------------------|
G|-----0-----0-----0-----0-----0-------0-----0--------|
D|--------------------------------0h4-----------0h4---|
A|--------2-----------2-----5-------------5-----------|
E|--3-----------3-------------------------------------|

Wherever this river flows


Chorus:

    C
e|------------------------------------------------------|
B|------------------------------------------------------|
G|-----0-----0-----0-----0-----0-------0-----0-------0--|
D|--------2-----------------------0h2-----------0h2-----|
A|--0-----------0-----2-----3-------------3-------------|
E|------------------------------------------------------|

    G*                      Gmaj7
e|----------------------------------------------------|
B|----------------------------------------------------|
G|-----0-----0-----0-----0-----0-------0-----0--------|   x2
D|--------------------0-----------0h4-----------0h4---|
A|--------2-----------------5-------------5-----------|
E|--3-----------3-------------------------------------|

I’m just finding my feet, pounding the street, hoping that someday it will come
And I’ve got to leave, write my own tragedies
Keep my old bridges there to burn

    C
e|------------------------------------------------------|
B|------------------------------------------------------|
G|-----0-----0-----0-----0-----0-------0-----0-------0--|
D|--------2-----------------------0h2-----------0h2-----|
A|--0-----------0-----2-----3-------------3-------------|
E|------------------------------------------------------|


   G*          f#/maj7     Em         
e|-------------------------------------------------------------------------|
B|-----------------------------------------------0-------------------------|
G|-----0-----0-----0-----0-----0-----0-----0-----------------0-----------0-|            
D|--------0--------------------------------------------0-----------0-------|   
A|--------------------2-----------2-----------2-----------2-----------2----| 
E|--3-----------2-----------0-----------0-----------0-----------0----------|

Leave all doors open, I don’t know if I’ll return

   C/G        
e|--------------------------------------------------------------|
B|-----------------------------------0--------------------------|
G|-----0-----0-----0-----0-----0-----------------0-----------0--|
D|-----------------------------------------0-----------0--------|
A|--3-----3-----------------------------------------------------|
E|--------------3-----3-----3-----3-----3-----3-----3-----3-----|

I’m out on my own 


   Cadd9       G
e|----------------------------------------------------|
B|----------------------------------------------------|
G|-----0-----0-----0-----0-----0-----0----------------|
D|----------------------------------------------------|
A|--3-----3-------------------------------------------|
E|--------------3-----3-----3-----3-----3-------------|

Heading out on my own


Intro again

Verse 3:
All of the faces I have seen,
Are lacking kindness and familiarity
And all of the eyes I have known have gone cold and turned to stone
All of the faces I have known


Pre-Chorus: (same as before)
I’m happy just to float
Wherever this rive goes

Chorus: (same as before)
I’m just finding my feet, pounding the street, hoping that someday it will come
And I’ve got to leave, write my own tragedies
Keep my old bridges there to burn
Leave all doors open, I don’t know if I’ll return
I’m out on my own
Heading out on my own


e|---------------------------|
B|---------------------------|
G|---------------------------|
D|----------------------0----| x2 (one note per * )
A|--0----2----3--------------|
E|-----------------3---------|

      *
It’s not the end
 *       *
No it’s just the change
    *
My world’s gone cold
        *
And my life’s turned grey
    *              *            *                
I need some shelter through my darkest days
   *            *
I know I’ll be back some day 


Chorus 1: (same)
I’m just finding my feet, pounding the street, hoping that someday it will come
And I’ve got to leave, write my own tragedies
Keep my old bridges there (stop here)

Chorus 2: (same)
I’m just finding my feet, pounding the street, hoping that someday it will come
And I’ve got to leave, write my own tragedies
Keep my old bridges there to burn
Leave all doors open, I don’t know if I’ll return
I’m out on my own
Heading out on my own

I’m out on my own
Heading out on my own



************************************

| /   slide up
| \   slide down
| h   hammer-on
| p   pull-off
| ~   vibrato
| +   harmonic
| x   Mute note
| b   Bend
| pb  Pre-bend
| br  Bend release
| pbr Pre-bend release
| brb Bend release bend

************************************

            
            
Suggest correction
Creating personal tab
Creating personal tab
You can edit any tab online and save it as your Personal.

You can edit, replace or remove any tab part or add personal notes – all changes will be seen only by you.

Personal tabs can be accessed anytime from any device, even offline.
Learn more »
comments
print report bad tab
guest
You may want to rate the tab now too:
select rating
Wanna post a correction for this tab? Suggest correction