Oops, an error
Loading. Please wait.

Please Dont Say You Love Me Tab

version 3
version 3

Interactive

32,570 views 36 this week
2 commentsread comments
1 2 3 4 5
x 18
add to favorites
launch autoscroll
font size
0
reset
how to read this tab
guitar tuner
×
Best way to learn
"Please Dont Say You Love Me"
Autoscroll
slow
fast
+/-
esc
set tempo
stop
Author
Capo
  follow
4th fret
-------------------------------------------------------------------------------
                             Please Don't Say You Love Me - Gabrielle Aplin
-------------------------------------------------------------------------------
Tabbed by: Joe Hook
Standard tuning, capo 4


[Intro/Verse 1]

e |-----------------------------------|
B |----5---5---3---3---8---8---7---7--|
G |----0---0---0---0---0---0---0---0--|
D |-----------------------------------|
A |--3---3---2---2---7---7---5---5----|
E |-----------------------------------|

            'Summer  comes,  winter
     fades...


[Pre-Chorus]

e |-------|
B |----5--|
G |----0--|
D |-------|
A |--3----|
E |-------|   (x8)


[Chorus]

e |--------------------------------------------------------------------|
B |----5---5---5---5---3---3---3---3---7---7---7---7---8---8---7---7---|
G |----0---0---0---0---0---0---0---0---0---0---0---0---0---0---0---0---|
D |--------------------------------------------------------------------|
A |--3---3---3---3---2---2---2---2---5---5---5---5---7---7---5---5-----|
E |--------------------------------------------------------------------|
    'Please...       love...         might...        back...


[Verse 2]

e |-----------------------------------|
B |----5---5---3---3---8---8---7---7--|
G |----0---0---0---0---0---0---0---0--|
D |-----------------------------------|
A |--3---3---2---2---7---7---5---5----|
E |-----------------------------------|


[Pre-Chorus]

e |-------|
B |----5--|
G |----0--|
D |-------|
A |--3----|
E |-------|   (x8)


[Bridge]

e|---------------------------------------------------------------------------|
B|----------8---8---8---8---8---8---8---8------------------------------------|
G|---------------------------------------------------------------------------|
D|-------------------------------------------0---0---0---0---0---0---0---0---|
A|--------5---5---5---5---5---5---5---5----2---2---2---2---2---2---2---2-----|
E|---------------------------------------------------------------------------|
'Fools rush in...                          before...

e|-----------------------------------------------------------------------0---|
B|-----------------------------------------------------------------------5---|
G|-----------------------------------------------------------------------0---|
D|----2---2---2---2---2---2---2---2----0---0---0---0---0---0---0---0-----0---|
A|--2---2---2---2---2---2---2---2----3---3---3---3---3---3---3---3-------3---|
E|-----------------------------------------------------------------------0---|
   down...                           more...                             for.'
                                                                        (strum)


[Final Chorus]

(pluck simultaneously):
e|---------------------------------------------------------------------------|
B|--5--------3-------7---------8---------------------------------------------|
G|--0--------0-------0---------0---------------------------------------------|
D|---------------------------------------------------------------------------|
A|--3--------2-------5---------7---------------------------------------------|
E|---------------------------------------------------------------------------|

  'Please... love...  might... back...'


[Chorus]

e |--------------------------------------------------------------------|
B |----5---5---5---5---3---3---3---3---7---7---7---7---8---8---7---7---|
G |----0---0---0---0---0---0---0---0---0---0---0---0---0---0---0---0---|
D |--------------------------------------------------------------------|
A |--3---3---3---3---2---2---2---2---5---5---5---5---7---7---5---5-----|
E |--------------------------------------------------------------------|
    'Please...       love...         might...        back...
Suggest correction
comments
print report bad tab
2 comments total.
0 reply
Scottalini 10 Feb 06, 2013 10:32 AM

Seems to work just fine

+1 reply
TMoreau15 20 Jan 26, 2017 04:22 PM

Capo is on 5

guest
You may want to rate the tab now too:
select rating
Wanna post a correction for this tab? Suggest correction