Oops, an error
Loading. Please wait.

Please Dont Say You Love Me tab

version 4
version 4

Interactive

3,401 views 45 this week
1 commentread comment
1 2 3 4 5
x 5
add to favorites
×
Save as Personal and add changes to this tab that will be seen only by you. Learn more ›
×
You can save this tab as Personal to edit and correct it or add notes. All changes will be seen only by you. Learn more »
launch autoscroll
font size
0
reset
how to read this tab
guitar tuner
edit
Autoscroll
slow
fast
+/-
esc
set tempo
stop
"Please Don't Say You Love Me" by Gabrielle Aplin

Most of the tabs for this song were quite good, but I noticed the bridge was almost 
always missing. So I decided to re-tab it all to include the bridge. Enjoy. :)

-[Standard Tuning]
-[Capo 5]


Intro/Verses
E|--------------------------------------------------|
B|-----5-----5-----3-----3-----8-----8-----7-----7--|
G|-----0-----0-----0-----0-----0-----0-----0-----0--|
D|--------------------------------------------------|
A|--3-----3-----------------7-----7-----5-----5-----|
E|--------------3-----3-----------------------------|

Pre-chorus
E|--------------------------------------------------|
B|-----5-----5-----3-----3-----8-----8-----7-----7--|
G|-----0-----0-----0-----0-----0-----0-----0-----0--|
D|--------------------------------------------------|
A|--3-----3-----------------7-----7-----5-----5-----|
E|--------------3-----3-----------------------------|

Chorus

E|--------------------------------------------------------------------------------------------------|
B|-----------5-----------5-----------3-----------3-----------7-----------7-----------8-----------7--|
G|-----0-----------0-----------0-----------0-----------0-----------0-----------0-----------0--------|
D|--------0-----------0-----------0-----------0-----------0-----------0-----------0-----------0-----|
A|--3-----------3-----------------------------------5-----------5-----------7-----------5-----------|
E|--------------------------3-----------3-----------------------------------------------------------|

Last Line of Final Chorus

E|-------------------------------------------------------------------------------|
B|-----------5-----------5-----------3-----------3-----------7-----------7----8--|
G|-----0-----------0-----------0-----------0-----------0-----------0----------0--|
D|--------0-----------0-----------0-----------0-----------0-----------0----------|
A|--3-----------3-----------------------------------5-----------5-------------7--|
E|--------------------------3-----------3-------------------------------------0--|



Bridge                                                    
E|--------------------------------------------------------------------------------------------------|
B|-----------5-----------5-----------5-----------5-----------8-----------8-----------8-----------8--|
G|-----0-----------0-----------0-----------0-----------0-----------0-----------0-----------0--------|
D|--------0-----------0-----------0-----------0-----------0-----------0-----------0-----------0-----|
A|--3-----------3-----------3-----------3-----------4-----------4-----------4-----------4-----------|
E|--------------------------------------------------------------------------------------------------|

   
E|-----------------------------------------------------------------------------------------------------|
B|-----------0-----------------------0-----------------------------------------------------------------|
G|-----0-----------0-----0-----2-----------2-----1-----------1-----------------------1-----------------|
D|-----------------------------------------------------2-----------2-----2-----0-----------0-----0-----|
A|--------2-----------2-----------0-----------0-----------2-----------2-----------2-----------2--------|
E|--3-----------3-----------2-----------2-----------0-----------0-----------0-----------0--------------|


E|------------------------------------------------------------------------------------------|
B|-----------1-----------------------1-----------------------5-----------5------7--------3--|
G|-----2-----------2-----2-----2-----------2-----2-----0-----------0------------0--------0--|
D|--------2-----------2-----------2-----------------------0-----------0---------0--------0--|
A|--0-----------0-----------0-----------0-----2-----3-----------3---------------5--------2--|
E|------------------------------------------------------------------------------------------|



            
            
Suggest correction
Creating personal tab
Creating personal tab
You can edit any tab online and save it as your Personal.

You can edit, replace or remove any tab part or add personal notes – all changes will be seen only by you.

Personal tabs can be accessed anytime from any device, even offline.
Learn more »
comments
print report bad tab
1 comment total.
0 reply
InTheEndSound 10 Aug 14, 2013 12:59 PM

Perfect tab. Thanks so much.

guest
You may want to rate the tab now too:
select rating
Wanna post a correction for this tab? Suggest correction