Oops, an error
Loading. Please wait.

Please Dont Say You Love Me tab

version 7
version 7

Interactive

190 views 1 this week
no commentswrite comment
1 2 3 4 5
3 more votes to show rating
add to favorites
×
Save as Personal and add changes to this tab that will be seen only by you. Learn more ›
×
You can save this tab as Personal to edit and correct it or add notes. All changes will be seen only by you. Learn more »
launch autoscroll
font size
0
reset
how to read this tab
guitar tuner
edit
Autoscroll
slow
fast
+/-
esc
set tempo
stop
fits in with 
https://tabs.ultimate-guitar.com/g/gabrielle_aplin/please_dont_say_you_love_me_ver3_tab.htm 

as a bridge, tabbed by ear so perhaps not 100% but sounds alright to me as is so much more simple 
than other versions i've seen


[Bridge]

                                            Fools rush
e|-------------------------------------------------------|
B|------5-----5-----5-----5-----5-----5-----5-----5------|
G|------0-----0-----0-----0-----0-----0-----0-----0------|
D|-------------------------------------------------------|
A|----3-----3-----3-----3-----3-----3-----3-----3--------|
E|-------------------------------------------------------|

     In, and I've been a fool be-
e|-------------------------------------------------------|
B|------5-----5-----5-----5-----5-----5-----5-----5------|
G|------0-----0-----0-----0-----0-----0-----0-----0------|
D|-------------------------------------------------------|
A|----4-----4-----4-----4-----4-----4-----4-----4--------|
E|-------------------------------------------------------|

      -fore, this time i wanna slow
e|-------------------------------------------------------|
B|------3-----3-----3-----3-----3-----3-----3-----3------|
G|------0-----0-----0-----0-----0-----0-----0-----0------|
D|-------------------------------------------------------|
A|----5-----5-----5-----5-----5-----5-----5-----5--------|
E|-------------------------------------------------------|

     down, 'cause I think this could be
e|-------------------------------------------------------|
B|------2-----2-----2-----2-----2-----2-----2-----2------|
G|------0-----0-----0-----0-----0-----0-----0-----0------|
D|-------------------------------------------------------|
A|----0-----0-----0-----0-----0-----0-----0-----0--------|
E|-------------------------------------------------------|

     more, the thing i'm looking
e|-------------------------------------------------------|
B|------5-----5-----5-----5-----5-----5-----5-----5------|
G|------0-----0-----0-----0-----0-----0-----0-----0------|
D|-------------------------------------------------------|
A|----3-----3-----3-----3-----3-----3-----3-----3--------|
E|-------------------------------------------------------|

     fo-                        r
e|-------------------------------------------------------|
B|------8-----8-----8-----8-----7-----7-----7------------|
G|------0-----0-----0-----0-----0-----0-----0------------|
D|-------------------------------------------------------|
A|----7-----7-----7-----7-----5-----5-----5-----5--------| (let last note ring)
E|-------------------------------------------------------|

            
            
Suggest correction
Creating personal tab
Creating personal tab
You can edit any tab online and save it as your Personal.

You can edit, replace or remove any tab part or add personal notes – all changes will be seen only by you.

Personal tabs can be accessed anytime from any device, even offline.
Learn more »
Give kudos to tab author, rate the tab!
1 2 3 4 5
comments
print report bad tab
guest
You may want to rate the tab now too:
select rating
Wanna post a correction for this tab? Suggest correction