Oops, an error
Loading. Please wait.

Last Song intro tab

by Gackt
19,448 views 12 this week
3 commentsread comments
1 2 3 4 5
x 3
add to favorites
×
Save as Personal and add changes to this tab that will be seen only by you. Learn more ›
×
You can save this tab as Personal to edit and correct it or add notes. All changes will be seen only by you. Learn more »
launch autoscroll
font size
0
reset
how to read this tab
guitar tuner
edit
Autoscroll
slow
fast
+/-
esc
set tempo
stop
Author
Difficulty
         Bm              G               A               D
------|---2----2------3----3-----0-----0------2-----2-------|
------|---3----3------3----3-----2-----2------3-----3-------|
------|---4----4------4----4-----2-----2------2-----2-------|
------|------------------------------2--------0---0---------|
------|---2--2-----------5-------0--------------------------|
------|---------------3-------------------------------------|

            
            
Suggest correction
Creating personal tab
Creating personal tab
You can edit any tab online and save it as your Personal.

You can edit, replace or remove any tab part or add personal notes – all changes will be seen only by you.

Personal tabs can be accessed anytime from any device, even offline.
Learn more »
Give kudos to tab author, rate the tab!
1 2 3 4 5
comments
print report bad tab
3 comments total.
0 reply
Listen 10 Jan 04, 2008 04:29 PM

There IS more....

0 reply
ash-henry29 10 Mar 21, 2008 10:48 PM

i got so peeved off with the lack of tabs for this song that i have decided to tab it out for everyone... here is..the INTRO....because all the chords given are right..

this is very simple one note at a time way of playing it. i couldnt be bothered writing the rest...
enjoy!

e|10h9---------------------10h9------------------------------9--|
B|----10-12---------------------10-12---------------------------|
G|----------11--9-11-12-11------------11--9-11-9-----9 11 12----| .
D|------------------------------------------------12------------| .
A|--------------------------------------------------------------|
E|--------------------------------------------------------------|

last time round, move from your 11th on the G to the 10th on B for the last note that leads into chords.

+1 reply
brettmariani7 10 Jun 27, 2008 02:48 PM

both of your tabs suck dear lord

guest
You may want to rate the tab now too:
select rating
Wanna post a correction for this tab? Suggest correction