Oops, an error
Loading. Please wait.

Redemption tab

version 1
version 1

Whole song

Interactive

by Gackt
10,431 views 18 this week
9 commentsread comments
1 2 3 4 5
2 more votes to show rating
add to favorites
×
Save as Personal and add changes to this tab that will be seen only by you. Learn more ›
×
You can save this tab as Personal to edit and correct it or add notes. All changes will be seen only by you. Learn more »
launch autoscroll
font size
0
reset
how to read this tab
guitar tuner
edit
Autoscroll
slow
fast
+/-
esc
set tempo
stop
Gackt - Redemption
Tabbed By: Jordan Chan

This single by Gackt can be found on the Dirge of Cerebus Trailer.
Listen to the song for strumming patterns.

drop D tuning.
Standard tune down one whole step.

Intro:
||--21-------19--------------||
||-----19-17----19-17-17/19--||
||---------------------------||
||---------------------------||
||---------------------------||
||---------------------------||x8

||-------------------------------------------|
||-------------------------------------------|
||-------------------------------------------|
||--2-2-2-2-5-5-5-5-12-12-12-12-10-10-10-12--|
||--2-2-2-2-5-5-5-5-12-12-12-12-10-10-10-12--|
||--2-2-2-2-5-5-5-5-12-12-12-12-10-10-10-12--|

--------------------------------------||
--------------------------------------||
--------------------------------------||
--2-2-2-2-5-5-5-5-12-12-12-12-5-5-5-3-||
--2-2-2-2-5-5-5-5-12-12-12-12-5-5-5-3-||
--2-2-2-2-5-5-5-5-12-12-12-12-5-5-5-3-||x2

Chorus:
||-------------------------------------------|
||-------------------------------------------|
||-------------------------------------------|
||--2-2-2-2-5-5-5-5-12-12-12-12-10-10-10-12--|
||--2-2-2-2-5-5-5-5-12-12-12-12-10-10-10-12--|
||--2-2-2-2-5-5-5-5-12-12-12-12-10-10-10-12--|

--------------------------------------||
--------------------------------------||
--------------------------------------||
--2-2-2-2-5-5-5-5-12-12-12-12-5-5-5-3-||
--2-2-2-2-5-5-5-5-12-12-12-12-5-5-5-3-||
--2-2-2-2-5-5-5-5-12-12-12-12-5-5-5-3-||x3

Second time through chorus, finish with.
||----------||
||----------||
||----------||
||--2-2-2-2-||
||--2-2-2-2-||
||--2-2-2-2-||x6
with slight pauses between repeats 1-5.

Bridge:
||--------------------||
||--------------------||
||--------------------||
||--2-2-3-0-2-2-2-3-0-||
||--2-2-3-0-2-2-2-3-0-||
||--2-2-3-0-2-2-2-3-0-||x8

Outtro:
||-------------------------------------------|
||-------------------------------------------|
||-------------------------------------------|
||--2-2-2-2-5-5-5-5-12-12-12-12-10-10-10-12--|
||--2-2-2-2-5-5-5-5-12-12-12-12-10-10-10-12--|
||--2-2-2-2-5-5-5-5-12-12-12-12-10-10-10-12--|

||--------------------------------------||
||--------------------------------------||
||--------------------------------------||
||--2-2-2-2-5-5-5-5-12-12-12-12-5-5-5-3-||
||--2-2-2-2-5-5-5-5-12-12-12-12-5-5-5-3-||
||--2-2-2-2-5-5-5-5-12-12-12-12-5-5-5-3-||x9

||----------||
||----------||
||----------||
||--2-2-2-2-||
||--2-2-2-2-||
||--2-2-2-2-||x3

            
            
Suggest correction
Creating personal tab
Creating personal tab
You can edit any tab online and save it as your Personal.

You can edit, replace or remove any tab part or add personal notes – all changes will be seen only by you.

Personal tabs can be accessed anytime from any device, even offline.
Learn more »
Give kudos to tab author, rate the tab!
1 2 3 4 5
comments
print report bad tab
9 comments total. Showing first comments.
0 reply
KaiserX 51 Apr 11, 2006 09:07 PM

my mistake, the 2nd part of the chorus... it should be
--------------------------------------||
--------------------------------------||
--------------------------------------||
--2-2-2-2-5-5-5-5-12-12-12-12-7-7-7-5-||
--2-2-2-2-5-5-5-5-12-12-12-12-7-7-7-5-||
--2-2-2-2-5-5-5-5-12-12-12-12-7-7-7-5-||

0 reply
alyel 10 Apr 27, 2006 04:03 PM

wow.awesome!! post more gackt songs.tabs please.lols. THANK YOU =D

0 reply
ShadowPitch 198 May 27, 2006 04:14 AM

=P for the bridge the lead guitar goessss

--------------------------------------||
--------------------------------------||
--------------------------------------||
--------------------------------------||
----5--5--6-4~---5-5-5--6-4~----------||
--------------------------------------||

Repeate as nescesary ^_^
oh yah. use a pitcher effect to make it sound more like in the song.

guest
You may want to rate the tab now too:
select rating
Wanna post a correction for this tab? Suggest correction