Oops, an error
Loading. Please wait.

Dis-Moi Encore Que Tu Maimes Bass Tab

1,392 views 1 this week
no commentswrite comment
1 2 3 4 5
please rate
add to favorites
launch autoscroll
font size
0
reset
guitar tuner
Tab Pro tools
  • play this tab
  • loop segment
  • change instrument
  • show fretboard
  • metronome
×
Best way to learn
"Dis-moi Encore Que Tu Maimes"
Autoscroll
slow
fast
+/-
esc
set tempo
stop
Contributor
Difficulty
intermediate
(A)
|--------------------------------------|-----------------------------------------|
|-----6-9---------11-11-11-11----9-9-9-|-----6-9---------11-11-11-11-------------|
|-7-7---------9---------------11-------|-7-7---------9---------------11-11-11-11-|
|---------7-7---7----------------------|---------7-7---7-------------------------|

(B)
|11-11-11-11-11-11-11-11-------------------------------------------------------------------------|
|------------------------11-11-11-11-11-11-11-11-------------------------11-11-11-11-11-11-11-11-|
|------------------------------------------------11-11-11-11-11-11-11-11-------------------------|
|------------------------------------------------------------------------------------------------|


Then play :
A B A B A B A B A B B

At 1:32, play :

|--------------------------------------|
|-----6-9------------------------------| x2
|-7-7---------9-----------11-11-11-11--|
|---------7-7---7-9-9-9-9--------------|


|---------------------------------------------------------------------------|
|-----9-11-----9-11---------------------------------------------------------|
|-9-9------9-9----------------------11-11-11-11-11-11-11-11-----------------|
|-------------------9-9-9-9-9-9-9-9-------------------------9-9-9-9-9-9-9-9-|


At 2:01, play :

|------------------------------------------|--------------------------------------------------|
|-------------9-10-11-11-11-11-11-11-11-11-|-------9/11\9--11/13\11---------9/11\9--11/13\11--|
|-9-9-9-9-9-9------------------------------|-7/9\7-------------------7/9\7--------------------|
|------------------------------------------|--------------------------------------------------|

|11-11-11-11-11-11-11-11------------------------------------------------------------------------|
|------------------------11-11-11-11-11-11-11-11-------------------------11-11-11-11-11-11-11-11|x2
|------------------------------------------------11-11-11-11-11-11-11-11------------------------|
|-----------------------------------------------------------------------------------------------|

At 2:29, play :

A B A B B
comments
We did not receive enough feedback on this tab! Please rate:
print report bad tab
1 2 3 4 5
I want to post or [tab]
guest
You may want to rate the tab now too:
select rating
Please do not post tabs as comments. Select "correction" instead!