Oops, an error
Loading. Please wait.

Kabet Tab

version 3
version 3

Whole song

Interactive

787 views 1 this week
no commentswrite comment
1 2 3 4 5
please rate
add to favorites
launch autoscroll
font size
0
reset
how to read this tab
guitar tuner
Autoscroll
slow
fast
+/-
esc
set tempo
stop
Help us to improve Ultimate-Guitar.com Take our survey!
×
Author
Chord Whole song: C-G-Am-F
Intro:
|-----3---1---0---------------------------3---1---0-----|
|-1---------------3---1-----------1-------------------3-|
|-------------------------------------------------------|
|-------------------------------------------------------|
|-3---3---3---3---3---3-----------3-------3---3---3---3-|
|-------------------------------------------------------|

|-0-------3---------1---0-------0-------3--------1---0----|
|---------------------------3-----------------------------|
|---------------------------------------------------------|
|---------------------------------------------------------|
|-3-------3---------3---3---3---3-------3--------3---3----|
|---------------------------------------------------------|l

|------0------------------------------------------------|
|-3----------1-------------------------1---0---1--------|
|---------------------0---0---2-----------------------0-|
|-------------------------------------------------------|
|-3----3-----3--------3---3---3--------3---3---3------3-|
|-------------------------------------------------------|

|-----0-------------------------------0-----------------|
|---------3---1---0---1-------1---3-------3---1---0---1-|
|-0-----------------------0-----------------------------|
|-------------------------------------------------------|
|-3---3---3---3---3---3-------3---3---3---3---3---3---3-|
|-------------------------------------------------------|

|-----0---1---3---3----------5---3----------5---3-------|
|-------------------------------------------------------|
|------------------------5--------------5--------------5|
|-------------------------------------------------------|
|-----3---3---3---3------3---3---3------3---3---3------3|
|-------------------------------------------------------|

|--5---3---5-----3-----------------------------------5----|
|-------------------------------5---6---5-----------------|
|-----------------------5------------------------5--------|
|---------------------------------------------------------|
|--3---3---3-----3------3-------3---3---3--------3---3----|
|---------------------------------------------------------|

|-3-----------------------------------------------------|
|-------------------------------------------------------|
|--------5----------------------------------------------|
|-------------------------------------------------------|
|-3------3----------------------------------------------|
|-------------------------------------------------------|
Suggest correction
Give kudos to tab author, rate the tab!
1 2 3 4 5
comments
print report bad tab
guest
You may want to rate the tab now too:
select rating
Please do not post tabs as comments. Select "correction" instead!