Oops, an error
Loading. Please wait.

La Segunda Ley Tab

version 1
version 1

Whole song

by Gaia
20 views 1 this week
no commentswrite comment
1 2 3 4 5
3 more votes to show rating
add to favorites
launch autoscroll
font size
0
reset
how to read this tab
guitar tuner
Autoscroll
slow
fast
+/-
esc
set tempo
stop
Help us to improve Ultimate-Guitar.com Take our survey!
×
INTRO:  SEGUNDA GUITARRA.
La sexta cuerda de la segunda guitarra esta afinada en D(re),
sin embargo esto no influye en lo largo de lo canción, solamente
en el intermedio debido a que en esta parte se usa dicha cuerda.

|-----------------------------|
|-----------------------------|
|---88888888888888888888------|
|---88888888888888888888------|       x 4
|---66666666655555555555------|
|-----------------------------|


ESTROFA 1 :
   C         Am7      G  F
Y sigues aqui esperando tu vida
 C                    Am7                      G
si depende solo de ti si conoces bien la salida
 F
si no puedes elegir


CORO:
 C5   C5*  C5  C5*                   F5
dale mas fuerte nada te puede parar si sigues lo que sientes.  x 2


ESTROFA 2:
        C          Am7      G   F
Y sigues aqui respirando un pasado que te digo y no podias respirar
     C                Am7                     G
si depende solo de ti si conoces bien la salida
F
si no puede elegir


CORO:
 C5   C5*  C5  C5*                   F5
dale mas fuerte nada te puede parar si sigues lo que sientes.  x 2

si sientes q eres de aquí..


INTERMEDIO:  Sexta cuerda afinada en D

|-----------------------------------------------
|-----------------------------------------------
|-----------------------------------------------
|-----------------------------------------------
|-----------------------------------------------
|--0--5-0-5---0-----0--5-0-5--0-----0--5-0-5-0--

---------------------------|
---------------------------|
---------------------------|
----------------5555555555-|
----------------5555555555-|
--0--5-0-5sss7--5555555555-|


            Un, dos, tres......
|-----------------------------|
|-----------------------------|
|---88888888888888888888------|      x 2
|---88888888888888888888------|
|---66666666655555555555------|
|-----------------------------|

CORO 2:

C5         C5*
dale dale pero dale mas fuerte
C5         C5*
dale dale que mañana nunca va a parar
 F5
dale dale pero dale mas fuerte     dale mas fuerte     dale mas fuerte

(x 3)

*************************************************************

El rasgueo en las estrofas es de la siguiente manera:

|--------------------3333-1111111111-|
|---111111-1-1-11111-0000-1111111111-|
|---000000-0-0-00000-0000-2222222222-|
|---222222-2-0-22222-0000-3333333333-|
|---333333-3-2-00000-2222-3333333333-|
|--------------------3333-1111111111-|


ACORDE:
C5*
|------|
|------|
|---5--|
|---5--|
|---2--|
|------|


PRIMERA GUITARRA: AFINACION NORMAL.

ESTROFA 1 :
|--------------------------------------------------------
|--------------------------------------------------------
|-----15-----------17--------16-------14-------12--------
|--------...---------------------------------------------
|--13---------14h5-----15s14----14s12----12s10-----10s8--
|--------------------------------------------------------

------------------------------------------------------------
------------------------------------------------------------
-------9h10p9---------10-------------9h10p9---------10------
----10--------10---10----10-------10--------10---10----10---
--8--------------8----------8---8--------------8----------8-
------------------------------------------------------------

---------------------------------------------
---------------------------------------------
-------17--------16-------14-------12--------
---------------------------------------------
--14h5-----15s14----14s12----12s10-----10s8--
---------------------------------------------

-------------------------------------------------------|
-----------------------------------------------10------|
-------9h10p9---------10-------------9h10p9-------9----|
----10--------10---10----10-------10--------10------10-|
--8--------------8----------8---8----------------------|
-------------------------------------------------------|

CORO:
|--------------------------------------------|
|--------------------------------------------|
|---1717171717191919191914141414141212121212-|   x 2
|---xxxxxxxxxxxxxxxxxxxxxxxxxxxxxxxxxxxxxxxx-|
|---1515151515171717171712121212121010101010-|
|--------------------------------------------|

ESTROFA 2 :

|---------------------------------------------
|---------------------------------------------
|-------17--------16-------14-------12--------
|---------------------------------------------
|--14h5-----15s14----14s12----12s10-----10s8--
|---------------------------------------------


------------------------------------------------------------
------------------------------------------------------------
-------9h10p9---------10-------------9h10p9---------10------
----10--------10---10----10-------10--------10---10----10---
--8--------------8----------8---8--------------8----------8-
------------------------------------------------------------

|-------15--------15-------------15--------15------
|----13----13--13----13-------12----12--12----12---
|-12---------12--------12--12---------12--------12-
|--------------------------------------------------
|--------------------------------------------------
|--------------------------------------------------

-------13--------13--------------------------------|
----10----10--10----10---12s1313s1515s1313s12s1313-|
-10---------10--------10--xs-x-xs-x-xs-x-xs-xs-x-x-|
--------------------------9s1010s1212s1010s-9s1010-|
---------------------------------------------------|
---------------------------------------------------|

CORO:
|--------------------------------------------|
|--------------------------------------------|
|---1717171717191919191914141414141212121212-|   x 2
|---xxxxxxxxxxxxxxxxxxxxxxxxxxxxxxxxxxxxxxxx-|
|---1515151515171717171712121212121010101010-|
|--------------------------------------------|

INTERMEDIO:
|-----------------------------------------------------|
|-----------------------------------------------------|
|-151515141414151515141414-12-12-12-12-12-14-14-14-14-|   x 2
|-xxxxxxxxxxxxxxxxxxxxxxxx-xx-xx-xx-xx-xx-xx-xx-xx-xx-|
|-131313121212131313121212-10-10-10-10-10-12-12-12-12-|
|-----------------------------------------------------|
En la segunda vez acaba en :

|----|
|----|
|-15-|
|-xx-|
|-13-|
|----|

CORO 2:
|-----------------------------------------------|
|-----------------------------------------------|
|---1717171717191919191914141414141212----------|   x 4
|---xxxxxxxxxxxxxxxxxxxxxxxxxxxxxxxxxx10101010--|
|---1515151515171717171712121212121010xxxxxxxx--|
|--------------------------------------8-8-8-8--|

|--------------------------------------------|
|--------------------------------------------|
|---1717171717191919191914141414141212121212-|   x 2
|---xxxxxxxxxxxxxxxxxxxxxxxxxxxxxxxxxxxxxxxx-|
|---1515151515171717171712121212121010101010-|
|--------------------------------------------|

Termina en:
|----|
|----|
|-17-|
|-xx-|
|-15-|
|----|
Suggest correction
Give kudos to tab author, rate the tab!
1 2 3 4 5
comments
print report bad tab
guest
You may want to rate the tab now too:
select rating
Wanna post a correction for this tab? Suggest correction